Song name
# A B C D E F G H I J K L M N O P Q R S T U V W X Y Z

Misc Unsigned Bands - Breaking Silence - Ultimate Sweetness tab

Inro to a song i wrote.

Standard tuning

e--------------------------------------------------------------|
B--------------------------------------------------------------|
G--------------------------------------------------------------|
D--------------------------------------------------------------|
A----10-9--9-10-----10-9--9-10p9p7-----10-9--9-10--\5---/12----|
E-0--------------0------------------0--------------------------|

e--------------------------------------------------------------|
B--------------------------------------------------------------|
G--------------------------------------------------------------|
D--------------------------------------------------------------|
A-10-9-10--10-9--10-9-7----------------------------------------|
E---------------------0----------------------------------------|

i plan on tabbing the whole thing out later.  you really don't need to know how it goes, 
play it however you want.
Tap to rate this tab
# A B C D E F G H I J K L M N O P Q R S T U V W X Y Z