Song name
# A B C D E F G H I J K L M N O P Q R S T U V W X Y Z

Misc Unsigned Bands - Blacklite - Unnameable tab

Key: .=palm mute
     h=hammer on
     p=pull off
     /=slide
     B=full bend
     b=1/2 bend
     v=vibrato

Intro (dist.)
E---------------------------------------------------------------------|
B---------------------------------------------------------------------|
G---------------------------------------------------------------------|
D-5-5-5-5-5-5-5-5/9/7-7-7-7-7-7-7-7/11/9-9-9-9-9-9-9-9---9----7----5--|
A-5-5-5-5-5-5-5-5/9/7-7-7-7-7-7-7-7/11/9-9-9-9-9-9-9-9---9----7----5--|
E-3-3-3-3-3-3-3-3/7/5-5-5-5-5-5-5-5/9/-7-7-7-7-7-7-7-7-0-7-0--5-0--3--|

Verse
E------------------------------------------------------|
B------------------------------------------------------|
G------------------------------------------------------|
D-5-5-5-5-5-5-5-5/9/7-7-7-7-7-7-7-7/11/9-9-9-9-9-9-9-9-|
A-5-5-5-5-5-5-5-5/9/7-7-7-7-7-7-7-7/11/9-9-9-9-9-9-9-9-|
E-3-3-3-3-3-3-3-3/7/5-5-5-5-5-5-5-5/9/-7-7-7-7-7-7-7-7-|
  . . . . . . . . . . . . . . . . . .  . . . . . . . .

Chorus
E------------------------------------------------------------------------|
B------------------------------------------------------------------------|
G------------------------------------------------------------------------|
D-5-5-5-5-5-5-5-5/9/7-7-7-7-7-7-7-7/11/9-9-9-9-9-9-9-9-------------------|
A-5-5-5-5-5-5-5-5/9/7-7-7-7-7-7-7-7/11/9-9-9-9-9-9-9-9-------------------|
E-3-3-3-3-3-3-3-3/7/5-5-5-5-5-5-5-5/9/-7-7-7-7-7-7-7-7-0h7h9-0h5h7-0h3h5-|

Solo
E---------------------------------------------------------------------|
B---------------------------------------------------------------------|
G---------------------------------------------------------------------|
D-5-5-5-5-5-5-5-5/9/7-7-7-7-7-7-7-7/11/9-9-9-9-9-9-9-9-9-9-9-9-9-9----|
A-5-5-5-5-5-5-5-5/9/7-7-7-7-7-7-7-7/11/9-9-9-9-9-9-9-9-9-9-9-9-9-9----|
E-3-3-3-3-3-3-3-3/7/5-5-5-5-5-5-5-5/9/-7-7-7-7-7-7-7-7-7-7-7-7-7-7----|

Solo
E----------------------------------------------------------------------|
B----------------------------------------------------------------------|
G-9B-9B-9B-7h9h9h9h9-9B-7h9h9h9-9B-9p7p5-9B-9p7p5-9B-9p7p5-9vvvvvvvv---|
D----------------------------------------------------------------------|
A----------------------------------------------------------------------|
E----------------------------------------------------------------------|

Solo
E--------------------------------------------------------------------------|
B--------------------------------------------------------------------------|
G-9/16-1616161616161616161616B1616161616161616161616B161616161616161616h18-|
D--------------------------------------------------------------------------|
A--------------------------------------------------------------------------|
E--------------------------------------------------------------------------|

Intro
Verse  x2
Chorus x2
Verse  x2
Chorus x2
Solo
Chorus
Tap to rate this tab
# A B C D E F G H I J K L M N O P Q R S T U V W X Y Z