Song name
# A B C D E F G H I J K L M N O P Q R S T U V W X Y Z

Misc Unsigned Bands - Crackers - Shave tab

Help us improve GuitareTab! Take a short survey!
Crackers - shave

Normal tuning

intro
|----------------------------|
|----------------------------|
|--------------0-----0-----3-|
|-----------0-----3-----3----|
|--0-----0-------------------|
|-----0----------------------|

verse\chorus
|----------------------------------|
|----------------------------------|
|--0-----------------0-----0-----3-|
|-----3-----------3-----3-----3----|
|--------3-----3-------------------|
|-----------1----------------------|

Nice, simple, and kool song.
Related for Crackers - Shave tab