Song name
# A B C D E F G H I J K L M N O P Q R S T U V W X Y Z

Misc Unsigned Bands - Venus Is Hot - He Attracts All The Ladies Like Only A Magnet Can tab

This my first tab.
i think i did pretty good at it.
me and my friend venus made i up for our good friend logan.
so yeah

INTRO
e--0-0-0-0--0-0--2-2--|
b--1-1-1-1--0-0--3-3--|
g--0-0-0-0--0-0--2-2--|
d--2-2-2-2--2-2--0-0--|
a--3-3-3-3--2-2-------|
E-----------0-0-------|
  ohhhhhh   Log- an!

Verse 1
e--0-x-3-x-2-x-0-x--|--0-x-3-x-2-x-0-x--|--0-x-3-x-2-x-0-x--|
b--1-x-0-x-3-x-1-x--|--1-x-0-x-3-x-1-x--|--1-x-0-x-3-x-1-x--|
g--0-x-0-x-2-x-0-x--|--0-x-0-x-2-x-0-x--|--0-x-0-x-2-x-0-x--|
d--2-x-0-x-0-x-2-x--|--2-x-0-x-0-x-2-x--|--2-x-0-x-0-x-2-x--|
a--3-x-2-x---x-3-x--|--3-x-2-x---x-3-x--|--3-x-2-x---x-3-x--|
E----x-3-x---x---x--|----x-3-x---x---x--|----x-3-x---x---x--|
you are so great      youre number three  we met in six grade
                      on my top eight     in lawson's class  

e--0-x-3-x-2~L-R|
b--1-x-0-x-3~E-I|
g--0-x-0-x-2~T-N|
d--2-x-0-x-0~--G|
a--3-x-2-x------|
E----x-3-x------|
you're pretty            BUTT!
bad

CHORUS
e--0-0-0-0-0-0-3-3-3-3-3-3-0-0-0-0----------|
b--1-1-1-1-1-1-0-0-0-0-0-0-1-1-1-1----------|
g--0-0-0-0-0-0-0-0-0-0-0-0-2-2-2-2----X3----|
d--2-2-2-2-2-2-0-0-0-0-0-0-2-2-2-2----------|
a--3-3-3-3-3-3-2-2-2-2-2-2-0-0-0-0----------|
E--------------3-3-3-3-3-3------------------|
youre the best friend i culd hav you make me laugh
when im feeling down and out you got my back
youre a curly brown haired kid you are the man

e--0-3-0--|
b--1-0-0--|
g--0-0-1--|
d--2-0-2--|
a--3-2-2--|
E----3-0--|

VERSE 2
e--5-5-3-3-0-0-0-0-0-0------|
b--5-5-3-3-1-1-1-2-2-2------|
g--6-6-4-4-0-0-0-2-2-2--X5--|
d--7-7-5-5-2-2-2-2-2-2------|
a--7-7-5-5-3-3-3-0-0-0------|
E--5-5-3-3------------------|
you b singing fergies lyrics wit ur good frend garrett
you b stealing all those bases on the baseball field
you get all the chix, youre a ladies man
walking down the street, you b rocking ur no tan
you texting on ur razor BUTT!

CHORUS

VERSE 3
e--0-x-3-x-2-x--|--0-x-3-x-2-x--|--0-x-3-x-2-x--|--0-x-3-x-2-x--|
b--1-x-0-x-3-x--|--1-x-0-x-3-x--|--1-x-0-x-3-x--|--1-x-0-x-3-x--|
d--0-x-0-x-3-x--|--0-x-0-x-3-x--|--0-x-0-x-3-x--|--0-x-0-x-3-x--|
g--2-x-0-x-0-x--|--2-x-0-x-0-x--|--2-x-0-x-0-x--|--2-x-0-x-0-x--|
a--3-x-2-x---x--|--3-x-2-x---x--|--3-x-2-x---x--|--3-x-2-x---x--|
E----x-3-x---x--|----x-3-x---x--|----x-3-x---x--|----x-3-x---x--|
weve had good    these past three when we move on we'll face our
times            years                            fears

e--0-3~L-R--|
b--1-0~E-I--|
d--0-0~T-N--|
g--2-0~--G--|
a--3-2~-----|
E----3~-----|
together forever           like best friends would


e------------------3--|
b------------------3--|
d------------------4--|
g------------------3--|
a------5-----------5--|
E--5/7---7-5-3-0-3-3--|

The End
                                 
Tap to rate this tab
 
# A B C D E F G H I J K L M N O P Q R S T U V W X Y Z