Guitaretab - guitar tabs
Song name
# A B C D E F G H I J K L M N O P Q R S T U V W X Y Z

Misc Unsigned Bands - Recipe For A Hurricane - Josh And Kyle tab

Recipe for a hurricane-kyle and josh


e-0--15p12-------------------------17p12h17-----13-----13--<12>----------|
b-0-------12h14------------------11--------13-16--13-16----<12>----------|
g-2------------12h14-----------12----------------------------------------|
d-2-----------------12-------13------------------------------------------|
a-2-------------------13---14--------------------------------------------|
e-0----------------------14----------------------------------------------|

                                             e--------------------------|
E                                            b--------------------------|
Kyle and Josh were walking down the road     g-1p0----------------------|
                                             d-----2--------------------|
                                             a-------2------------------|
D                                  e----------0---------------|
Holding hands.

Em
They both kissed the toad.

C
their everlasting love was starting to unfold.

plam mute Em
then ther stood a demon standing in the way

Palm mute F5
he pointed at them and told them 'stop being gay.'

D
they cried.

Em
then Josh sacfificed kyle, just get away.

Am                     Dm
kyle dd-ii-ee-dd......yeah.

guitar solo

[ Tab from: http://www.guitaretab.com/m/misc-unsigned-bands/88570.html ]
               t       t        t        t         t        t        t
e-------------23-19p15-23-19p15-23-19p15-23-19p15--24-19p15-24-19p15-24--|
b---24p21h24-------------------------------------------------------------|
g------------------------------------------------------------------------|
d------------------------------------------------------------------------|
a------------------------------------------------------------------------|
e------------------------------------------------------------------------|
        t
e-19p15-24-19p15--15-12----------------------------------------------------|
b-----------------------15-12----------------------------------------------|
g----------------------------14-12-----------------------------------------|
d---------------------------------14-12------------------------------15-17-|
a--------------------------------------14-12--------------------15-17------|
e-------------------------------------------14-12-12-13-14-15-17-----------|
                       /\  full                          .  .  .
                      /  \
e-----------15-18--19/----\-19~~~~~~~----------16-19-----------19-22~~~~~~~--|
b------15-18------------------------------16-19----------19-22---------------|
g-15-17------------------------------16-18----------19-21--------------------|
d----------------------------------------------------------------------------|
a----------------------------------------------------------------------------|
e----------------------------------------------------------------------------|


B                Em....
Josh is a coward

END
Related for Recipe For A Hurricane - Josh And Kyle tab
Advertisement will be closed in 10 seconds