Song name
# A B C D E F G H I J K L M N O P Q R S T U V W X Y Z

Misc Unsigned Bands - Himler Attack - Unnamed tab

Band: FistFOR
Tabber: Da Jamm

Intro clean

--------------------------|
--------------------------|
-2-2-2-2-2-2-2-2b---------|
-2-2-2-2-2-2-2-2b---------|
0-3-2-1-0-3-2-1-----------|
--------------------------|


Chours

Disorted

--------------------------|
--------------------------|
--------------------------|
--------------------------| X2
-2-2-2-2-2-2-1-2----------|
0-3-2-1-0-3-2-1-----------|

Riff

Clean with wah-pedal

--------------------------|
--------------------------|
-2-2-2-2-2-2-2-2----------|
-2-2-2-2-2-2-2-2----------|
0-3-2-1-0-3-2-1-----------|
--------------------------|

Solo

Disortion

-------------------------------------------|
-------------------------------------------|
-------------------------------------------|
-------------------------------------------|
--22--22--22--22--22--22--22--22-----------|
00--33--22--11--00--33--22--11-------------|
pm-----------------------------------------|

------------------------------------------------------------------|
------------------------------------------------------------------|
--12--12--12--12--12--12--12--12--12h13p12p10h12p10---------------|
10--13--12--11--10--13--12--11--10------------------10\\\\--------|
----------------------------------------------------10\\\\--------|
----------------------------------------------------10\\\\--------|


Outro

Disorted


------------------------------------------|
------------------------------------------|
------------------------------------------|
0-0-7-7-3-3\7-7-2-2\7-7-1-1---------------| X5
0-0-7-7-3-3\7-7-2-2\7-7-1-1---------------|
0-0-7-7-3-3\7-7-2-2\7-7-1-1---------------|


Intro
Chours
Riff
Chours
Riff
Chours
Solo
Outro

Thats my song. It isint the best of songs but hey it fun to play!
Tap to rate this tab
# A B C D E F G H I J K L M N O P Q R S T U V W X Y Z