Song name
# A B C D E F G H I J K L M N O P Q R S T U V W X Y Z

Misc Unsigned Bands - Rose Of Carthage - Blood Red Doors tab

----------------------------------------------------------------------------
                     Rose of Carthage - Blood Red Doors
----------------------------------------------------------------------------

Tabbed By: Kyle Gilmore
Email: fornia_03@yahoo.com
Website: www.myspace.com/roseofcarthage


(Guitar 2)
e)-----------------------------------------------------------------]
B)-----------------------------------------------------------------]
G]-----------------------------------------------------------------]
D)-10-8-7-0----------------10-8-7-0-----------------10-8-7-0~~~~~--]
A)-10-8-7-0----------------10-8-7-0-----------------10-8-7-0~~~~~--]
E)-10-8-7-0----------------10-8-7-0-----------------10-8-7-0~~~~~--]



e)-------------------------------------------------------------------]
B)-------------------------------------------------------------------]
G)-------------------------------------------------------------------](4x's)
D)-10-8-7-0----------1212101088-131312121010-------------------------]
A)-10-8-7-0--1212101088-------------------131312121010---------------]
E)-10-8-7-0----------------------------------------------------------]


e)---------]
B)---------]
G)---------]
D)-10-8-7--]
A)-10-8-7--]
E)-10-8-7--]


e)------------------------------------------------------------------------]
B)------------------------------------------------------------------------]
G)------------------------------------------------------------------------]
D)-12-000000-8-00-13-10-00-12--0000000--13-121012-000000-8-00-13-10-00-12-]
A)------------------------------------------------------------------------]
E)------------------------------------------------------------------------]


e)--------------------------------------------]
B)--------------------------------------------]
G)--------------------------------------------]
D)-0000000--13-121012-000000-8-00-13-10-00-12-]
A)--------------------------------------------]
E)--------------------------------------------]


e)----------------------------------------------------------------------]
B)----------------------------------------------------------------------]
G)----------------------------------------------------------------------]
D)-00000000-13-1210-1212121212121212-12*-10h12p10-1010101010101010-10*--]
A)----------------------------------------------------------------------]
E)----------------------------------------------------------------------]




e)-------------------------------------------------------------------]
B)-------------------------------------------------------------------]
G)-------------------------------------------------------------------](4x's)
D)---------------------------------775533----------------------------]
A)-------------------------------------------------------------------]
E)-0000-8p7p-0000-8p7p-00-3p5p7p8p-----------------------------------]



e)------------------------------------------------------------------------]
B)------------------------------------------------------------------------]
G)------------------------------------------------------------------------]
D)-12-000000-8-00-13-10-00-12--0000000--13-121012-000000-8-00-13-10-00-12-]
A)------------------------------------------------------------------------]
E)------------------------------------------------------------------------]


e)--------------------------------------------]
B)--------------------------------------------]
G)--------------------------------------------]
D)-0000000--13-121012-000000-8-00-13-10-00-12-]
A)--------------------------------------------]
E)--------------------------------------------]


e)----------------------------------------------------------------------]
B)----------------------------------------------------------------------]
G)----------------------------------------------------------------------]
D)-00000000-13-1210-1212121212121212-12*-10h12p10-1010101010101010-10*--]
A)----------------------------------------------------------------------]
E)----------------------------------------------------------------------]


e)-------------------------------------------------------------------]
B)-------------------------------------------------------------------]
G)-------------------------------------------------------------------](3x's)
D)-----5----1087--1087-------5-----8-8-8-----------------------------]
A)-5785-875-----10----10-5785-875--8-8-8-----------------------------]
E)---------------------------------8-8-8-----------------------------]



e)-------------------------------------------------------------------]
B)-------------------------------------------------------------------]
G)-------------------------------------------------------------------](2x's)
D)-------------------------------------------------------------------]
A)-0000-0000-0000---0000-0000---0000-3h*-----------------------------]
E)-0000-0000-0000-0-0000-0000---0000---------------------------------]
   .... .... .... . .... ....   ....


e)-------------------------------------------------------------------]
B)-------------------------------------------------------------------]
G)-------------------------------------------------------------------](2x's)
D)-------------------------------------------------------------------]
A)-0000~~~-0000~~~-0000~~~---0000~~~-0000~~~-0000-3h*----------------]
E)-0000~~~-0000~~~-0000~~~-0-0000~~~-0000~~~-0000--------------------]
   ....    ....    ....    . ....    ....    ....


e)-------------------------------------------------------------------]
B)-------------------------------------------------------------------]
G)---------8\7-------10\8\7-------5\8\7------------------------------](4x's)
D)-0-0-0-0-8\7-0-0-0-10\8\7-0-0-0-5\8\7-0-0-0-0-0-0-------0-0-0-5\6\5]
A)-0-0-0-0-6\5-0-0-0-8-\6\5-0-0-0-3\6\5-0-0-0-0-0-0-6-5-3-0-0-0-5\6\5]
E)-0-0-0-0-----0-0-0--------0-0-0-------0-0-0-0-0-0-------0-0-0-5\6\5]
   . . . .     . . .        . . .       . . . . . .       . . .


e)-------------------------------------------------------------------]
B)-------------------------------------------------------------------]
G)-------------------------------------------------------------------](2x's)
D)-------------------------------------------------------------------]
A)-00000~~~-00000~~~-00000~~~---00000~~~-00000~~~-00000-3h*----------]
E)-00000~~~-00000~~~-00000~~~-0-00000~~~-00000~~~-00000--------------]



e)-------------------------------------------------------------------]
B)-------------------------------------------------------------------]
G)-3---------3-----------------3---------3---------------------------](3x's)
D)-3-1-0-0-0-3-1-0-0-0-0-0-0-0-3-1-0-0-0-3--5---------8------787-----]
A)-1-1-0-0-0-1-1-0-0-0-0-0-0-0-1-1-0-0-0-1--5---8-78--8---10-----10--]
E)---1-0-0-0---1-0-0-0-0-0-0-0---1-0-0-0----5-0-------8-0------------]



e)-------------------------------------------------------------------]
B)-------------------------------------------------------------------]
G)-------------------------------------------------------------------]
D)-0~-3333-5555-77777777---------------------------------------------]
A)-0~----------------------------------------------------------------]
E)-0~----------------------------------------------------------------]



e)----------------------------------------------------------------------]
B)----------------------------------------------------------------------]
G)----------------------------------------------------------------------]
D)-0-0-7---------787-------0-0---5---9h*-575------0-0-7---------787-----]
A)-0-0--8-10-7h*-----108---0-0-7---8----------75--0-0--8-10-7h*-----108-]
E)-0-0---------------------0-0--------------------0-0-------------------] 



e)-------------------------------------------------------------------]
B)-------------------------------------------------------------------]
G)-------------------------------------------------------------------]
D)-0~-3333\5555\77777777---------------------------------------------]
A)-0~----------------------------------------------------------------]
E)-0~----------------------------------------------------------------]



e)----------------------------------------------------------------------]
B)----------------------------------------------------------------------]
G)----------------------------------------------------------------------]
D)-0-0-7---------787-------0-0---5---9h*-575------0-0-7---------787-----]
A)-0-0--8-10-7h*-----108---0-0-7---8----------75--0-0--8-10-7h*-----108-]
E)-0-0---------------------0-0--------------------0-0-------------------]



e)-------------------------------------------------------------------]
B)-------------------------------------------------------------------]
G)-------------------------------------------------------------------]
D)-------------------------------------------------------------------]
A)-------------------------------------------------------------------]
E)-000000003333\5555\777777777777---000000007777\3333\555555555555---]



e)----------------------------------------------------------------------]
B)----------------------------------------------------------------------]
G)----------------------------------------------------------------------]
D)-0-0-7---------787-------0-0---5---9h*-575------0-0-7---------787-----]
A)-0-0--8-10-7h*-----108---0-0-7---8----------75--0-0--8-10-7h*-----108-]
E)-0-0---------------------0-0--------------------0-0-------------------]



e)-------------------------------------------------------------------]
B)-------------------------------------------------------------------]
G)-------------------------------------------------------------------]
D)-------------------------------------------------------------------]
A)-------------------------------------------------------------------]
E)-000000003333\5555\777777777777------------------------------------]



e)----------------------------------------------------------------------]
B)----------------------------------------------------------------------]
G)----------------------------------------------------------------------]
D)-0-0-7---------787-------0-0---5---9h*-575------0-0-7---------787-----]
A)-0-0--8-10-7h*-----108---0-0-7---8----------75--0-0--8-10-7h*-----108-]
E)-0-0---------------------0-0--------------------0-0-------------------]



e)-------------------------------------------------------------------]
B)-------------------------------------------------------------------]
G)-------------------------------------------------------------------]
D)-------------------------------------------------------------------]
A)-------------------------------------------------------------------]
E)-000000003333\5555\777777777777---000000007777\3333\555555555555---]



e)-------------------------------------------------------------------]
B)-------------------------------------------------------------------]
G)-------------------------------------------------------------------]
D)-0~-3333-5555-7777777777777-7\0------------------------------------]
A)-0~---------------------------0------------------------------------]
E)-0~---------------------------0------------------------------------]
Tap to rate this tab
 
# A B C D E F G H I J K L M N O P Q R S T U V W X Y Z