Song name
# A B C D E F G H I J K L M N O P Q R S T U V W X Y Z

Misc Unsigned Bands - Karl And The Marxists - We Need A Communism tab

Help us improve GuitareTab! Take a short survey!
The proletariat, the people Need to establish,
a social organization, a stateless, classless
Revolution against the bourgeoisie
is the only way to get freedom and peace

We need a communism
We need a communism
We need a communism
In the USA
We need a communism
We need a communism
We need a communism
In the USA

Fuck capitalism and its close-minded views
Controlling the peoples minds with the news
We need exposure of corruption and the truth
I say to the capitalist pigs fuck you

We need a communism
We need a communism
We need a communism
In the USA
We need a communism
We need a communism
We need a communism
In the USA

Intro/verse
-----------------------------------------------------------------|
-----------------------------------------------------------------|
--------------------------------99998888777766669999888877776666-|
99998888777766669999888877776666---------------------------------|
7777666655554444777766665555444477776666555544447777666655554444-
-----------------------------------------------------------------

chorus
-------------------------------|
-------------------------------|
-------------------------------|
6666----7777----6666-----7-7-7-|
444466665555777744446666-5-5-5-|
----4444----5555----4444-------|

breakdown!
-----------------|
-9-9-8-8-7-7-6-6-|
-9-9-8-8-7-7-6-6-|
-9-9-8-8-7-7-6-6-|
-----------------|
-----------------|

Order
Intro 1X
Verse 1X
Chorus 2X
Verse 1X
Chorus 2X
Breakdown 4X
Chorus 4X
Related for Karl And The Marxists - We Need A Communism tab