Guitaretab - guitar tabs
Song name
# A B C D E F G H I J K L M N O P Q R S T U V W X Y Z

Misc Unsigned Bands - Karl And The Marxists - Rock The 40 Oz tab

Rock The 40oz. - Leftover Crack
Fuck World Trade


Tuning: Standard (E B D G A E)

x - dead note 
(n) - ghost note
> - accentuated note 
h - hammer on
p - pull off
^- bend 
/ - slide  
~ - vibrato
. - palm mute
! - let ring

Intro - Guitar 1
e|----------------------------------------|
B|----------------------------------------|
G|-9-9-9-9-5-5-5-5------------------------|
D|-9-9-9-9-5-5-5-5-5-5-5-5-5-5-5-5--------|
A|-7-7-7-7-3-3-3-3-5-5-5-5-5-5-5-5--------|
E|-----------------3-3-3-3-3-3-3-3--------|x4

Intro - Guitar 2 (End of Gtr.1's intro)
e|----------------------------------|
B|----------------------------------|
G|-12-12-12-12-14-14-16-16----------|
D|--x--x--x--x--x--x--x--x----------|
A|-10-10-10-10-12-12-14-14----------|
E|----------------------------------|

Verse - Guitar 1
e|----------------------------------------|
B|----------------------------------------|
G|-9-9-9-9-5-5-5-5------------------------|
D|-9-9-9-9-5-5-5-5-5-5-5-5-5-5-5-5--------|
A|-7-7-7-7-3-3-3-3-5-5-5-5-5-5-5-5--------|
E|-----------------3-3-3-3-3-3-3-3--------|
   . . . . . . . . . . . . . . . .

Verse - Guitar 2
e|----------------------------------------------------|
B|-------------12-12-12-12-15-15-15-15-13-13-13-13----|
G|-12-12-12-12-12-12-12-12-12-12-12-12-12-12-12-12----|
D|-15-15-15-15----------------------------------------|
A|----------------------------------------------------|
E|----------------------------------------------------|
[ Tab from: http://www.guitaretab.com/m/misc-unsigned-bands/88609.html ]
Riff at the end of the verse:
e|--------------|
B|--------------|
G|--------------|
D|---7-7-7-7----|
A|---7-7-7-7----|
E|---5-5-5-5----|

Chorus
e|------------------------------------------------------------------|
B|------------------------------------------------------------------|
G|---------7-7-7-7-4-4-4-4-4-4-4-4----------5-5-5-5-4-4-4-4-4-4-4-4-|
D|-4-4-4-4-7-7-7-7-4-4-4-4-4-4-4-4--4-4-4-4-5-5-5-5-4-4-4-4-4-4-4-4-|
A|-4-4-4-4-5-5-5-5-2-2-2-2-2-2-2-2--4-4-4-4-3-3-3-3-2-2-2-2-2-2-2-2-|
E|-2-2-2-2--------------------------2-2-2-2-------------------------|

Post Chorus - Guitar 1
e|----------------------------------|
B|----------------------------------|
G|-5-5-5-5-5-5-5-5-4-4-4-4-4-4-4-4--|
D|-5-5-5-5-5-5-5-5-4-4-4-4-4-4-4-4--|
A|-3-3-3-3-3-3-3-3-2-2-2-2-2-2-2-2--|
E|----------------------------------|
     .   . . .   .   . .   . .   .

Post Chorus - Guitar 2 (End of Gtr.1's Post Chorus)
e|----------------------------------|
B|----------------------------------|
G|-12-12-12-12-14-14-16-16----------|
D|--x--x--x--x--x--x--x--x----------|
A|-10-10-10-10-12-12-14-14----------|
E|----------------------------------|

Outro
e|------------------------------------|
B|------------------------------------|
G|-4-4-4-4-5-7-------4-4-4-4-5-7------|
D|-4-4-4-4-5-7-------4-4-4-4-5-7------|
A|-2-2-2-2-3-5-(x1)--2-2-2-2-3-5-(x3)-|
E|------------------------------------|
                     . . . . . .

End On
e|---------------------|
B|---------------------|
G|---------------------|
D|--5!-----------5-----|
A|--5!-----------5-----|
E|--3!-----------3-----|


      -END-
Related for Karl And The Marxists - Rock The 40 Oz tab
×
Karl And The Marxists - Rock The 40 Oz