Guitaretab - guitar tabs
Song name
# A B C D E F G H I J K L M N O P Q R S T U V W X Y Z

Misc Unsigned Bands - Skinned Youth - Be A Friend tab

BE A FRIEND

Intro :-

E------| E-----| E-----| E-----|
B------| B-----| B-----| B-----|
G--12--| G--9--| G--5--| G--7--|
D--12--| D--9--| D--5--| D--7--| x4
A--10--| A--7--| A--3--| A--5--|
E------| E-----| E-----| E-----|

Verse :-

E------| E-----| E-----| E-----|
B------| B-----| B-----| B-----|
G--12--| G--7--| G--9--| G--5--|
D--12--| D--7--| D--9--| D--5--| x2
A--10--| A--5--| A--7--| A--3--|
E------| E-----| E-----| E-----|

Pre-Chorus :-

E-----| E-----|
B-----| B-----|
G--9--| G--7--|
D--9--| x8 D--7--| x8 (All of that x2)
A--7--| A--5--|
E-----| E-----|

Chorus :-

E------3-0------1-0------3-0------5-0--|
B--------------------------------------|
G--5-5------3-3------5-5------7-7------|
D--5-5------3-3------5-5------7-7------| x2
A--3-3------1-1------3-3------5-5------|
E--------------------------------------|

Verse 2 :-

E------| E-----| E-----| E-----|
B------| B-----| B-----| B-----|
G--12--| G--7--| G--9--| G--5--|
D--12--| D--7--| D--9--| D--5--| x2
A--10--| A--5--| A--7--| A--3--|
E------| E-----| E-----| E-----|

Pre-Chorus :-

E-----| E-----|
B-----| B-----|
G--9--| G--7--|
D--9--| x8 D--7--| x8 (All of that x2)
A--7--| A--5--|
E-----| E-----|

Chorus :-
[ Tab from: http://www.guitaretab.com/m/misc-unsigned-bands/88613.html ]
E------3-0------1-0------3-0------5-0--|
B--------------------------------------|
G--5-5------3-3------5-5------7-7------|
D--5-5------3-3------5-5------7-7------| x2
A--3-3------1-1------3-3------5-5------|
E--------------------------------------|

Bridge :-

E-----| E-----|
B-----| B-----|
G--9--| G--7--|
D--9--| x8 D--7--| x8 (All of that x2)
A--7--| A--5--|
E-----| E-----|

E--------------| E---------| E---------| E---------|
B--------------| B---------| B---------| B---------|
G--12-12-12-12-| G--9-9-9-9| G--5-5-5-5| G--7-7-7-7|
D--12-12-12-12-| D--9-9-9-9| D--5-5-5-5| D--7-7-7-7| x4
A--10-10-10-10-| A--7-7-7-7| A--3-3-3-3| A--5-5-5-5|
E--------------| E---------| E---------| E---------|

Chorus :-

E------3-0------1-0------3-0------5-0--|
B--------------------------------------|
G--5-5------3-3------5-5------7-7------|
D--5-5------3-3------5-5------7-7------| x2
A--3-3------1-1------3-3------5-5------|
E--------------------------------------|

Post-Chorus :-

E-----| E-----| 
B-----| B-----|
G--9--| G--7--|
D--9--| x8 D--7--| x8 (All of that x2)
A--7--| A--5--|
E-----| E-----|

Outro :-

E----------------------------|
B----------------------------|
G--12~-----9~-----5~-----7~--|
D--12~-----9~-----5~-----7~--|
A--10~-----7~-----3~-----5~--|
E----------------------------|

E----------------------------------------------|
B----------------------------------------------|
G--12~-----9~-----5-5-5-5-5-5-----7-7-7-7-7-7--|
D--12~-----9~-----5-5-5-5-5-5-----7-7-7-7-7-7--|
A--10~-----7~-----3-3-3-3-3-3-----5-5-5-5-5-5--|
E----------------------------------------------|

End On :-

E------|
A------|
D--12--|
G--12--|
B--10--|
E------|
Related for Skinned Youth - Be A Friend tab
Advertisement will be closed in 10 seconds