Song name
# A B C D E F G H I J K L M N O P Q R S T U V W X Y Z

Misc Unsigned Bands - Remedy - Chump tab

EINTRO-------------------------------------|
B------------------------------------------|
G------------------------------------------|
D---0--------0--------0-------0----0----0--|  (X2)
A-----x 4------x4-------x5-----------------|
E-5--------7--------5-------3----2----0----|

E-----------------------------------------------------------------|
B-----------------------------------------------------------------|
G-----------------------------------------------------------------|
D-7---7---7---7---5---5---5---5---2---2---2---2---4---4---4---4---|
A---5---5---5---5---7---7---7---7---4---4---4---4---2---2---2---2-|
E-----------------------------------------------------------------|

E--------------------------------|
B--------------------------------|
G--------------------------------|
D-2---0---2---0---2---0---2---00-|
A---0---0---0---0---0---0---0----|
E--------------------------------|

Second intro

E------------------------------|
B------------------------------|
G-7--5--------7--5-------------|
D-7--5--5--3--7--5--5--7--9----|
A-5--3--5--3--5--3--5--7--9----|
E-------3--1--------3--5--7----|

Verses

E-------------|
B-------------|
G-7--2--5--2--|
D-7--2--5--2--|
A-5--0--3--0--|
E-------------|

Chorus

E--------------------------------------------------------|
B--------------------------------------------------------|
G--7--5--------7--5--------------------------------------|
D--7--5--5--3--7--5--5--7--9-----------------------------|
A--5--3--5--3--5--3--5--7--9-Hold then go back to verse--|
E--------3--1--------3--5--7-----------------------------|

Solo/Fill

E------------------------------------------------------------|
B------------------------------------------------------------|
G---------7---7---7---7------7---7---7---7------9b-9b-9b-7b--|
D-7b-7h-9---9---9---9---7h 9---9---9---9---7h-9--------------|(X3)then back
A------------------------------------------------------------|to chorus
E------------------------------------------------------------|

Outro(play intro once)
Tap to rate this tab
 
# A B C D E F G H I J K L M N O P Q R S T U V W X Y Z