Song name
# A B C D E F G H I J K L M N O P Q R S T U V W X Y Z

Misc Unsigned Bands - Remedy - Low Life tab

Intro guitar 1
E----------------------------------------------------------------------|
B----------------------------------------------------------------------|
G-----4-------4-------2-------2--------------------------4-------4-----|
D---4---4---4---4---2---2---2---2------2-------2-------4---4---4----4--|
A-2-------2-------0-------0----------2---2---2---2---2-------2---------|(X4)
E----------------------------------0-------0-------0-------------------|
                  After playing this 2 times the second
                       guitar comes in playing this:

Guitar 2
E-11---11---11---9----9----9---12----12----12---11----11----11---|
B-0-00-0-00-0--0-0-00-0-00-0-0-0--00-0--00-0--0-0--00-0--00-0--0-|
G----------------------------------------------------------------|
D----------------------------------------------------------------|
A----------------------------------------------------------------|
E----------------------------------------------------------------|
                     Keep playing this till the verse
Guitar 1

E--------------------------|
B--------------------------|
G-4-~-2-~------4-~---------|
D-4-~-2-~-2-~--4-~---------|(X2)
A-2-~-0-~-2-~--2-~---------|
E---------0-~--------------|

Verse(Both guitars)

E-------------------------|
B-------------------------|
G-4-~--2-~------4-~-------|
D-4-~--2-~-2-~--4-~-------|
A-2-~--0-~-2-~--2-~-------|
E----------0-~------------|

Chorus(Both guitars)

E--------------------------|
B--------------------------|
G-7----7------7------------|
D-7-7--7-7-7b-7--9--5--~---|
A-5-7--5-7----5--9--5--~---|
E---5----5-------7--7--~---|

Verse same as above
then chorus 2X
Lastly Outro which is the intro

Lyrics:

Verse 1:

Your here now your gone
its real and it was fun
you were well heard             (Repeat this verse 2X
now look how messed up you are

Chorus:

I am a waste like you
with nothing ever to do
I'm a lifeless f***
gone and never will come back

Verse 2:

You played the game with me
and I won look how things are
..Explosives strapped to your body
you dont even get last words

Chorus:

I'm a waste like you
with nothing ever to do
I'm a lifeless F***
gone and never will come back

Thats it my friends My band Remedy is recording a cd
and you can hear our music on our purevolume soon so i'll keep
you all posted..  Michael- Lead vocals/guitar
Tap to rate this tab
# A B C D E F G H I J K L M N O P Q R S T U V W X Y Z