Song name
# A B C D E F G H I J K L M N O P Q R S T U V W X Y Z

Misc Unsigned Bands - Minimum Wage - Re-united Kingdom tab

INTRO - PALM MUTED

e|-----------------------------------------------------------------G
B|-----------------------------------------------------------------U
G|-7-7-7-7-7-7-7-7-------------------------------------------------I
D|-7-7-7-7-7-7-7-7-7-7-7-7-7-7-7-7-9-9-9-9-9-9-9-9-5-5-5-5-5-5-5-5-T
A|-5-5-5-5-5-5-5-5-7-7-7-7-7-7-7-7-9-9-9-9-9-9-9-9-5-5-5-5-5-5-5-5-A
E|-----------------5-5-5-5-5-5-5-5-7-7-7-7-7-7-7-7-3-3-3-3-3-3-3-3-R

CHORUS 

G|-----------------------------------------B
D|-----------------------------------------A
A|-5-5-5-5-/-------------------------------S
E|------------3-3-/--1-1-1-1-1-1-1-1-------S

e|-----------------------------------------G
B|-----------------------------------------U
G|-7-7-7-7-/-------------------------------I
D|-7-7-7-7-/--5-5-/--3-3-3-3-3-3-3-3-------T
A|-5-5-5-5-/--5-5-/--3-3-3-3-3-3-3-3-------A
E|------------3-3-/--1-1-1-1-1-1-1-1-------R

 Re-united /Kingdom/

VERSE

e|-----------------------------------------------------------------G
B|-----------------------------------------------------------------U
G|-7-7-7-7-7-7-7-7-------------------------------------------------I
D|-7-7-7-7-7-7-7-7-7-7-7-7-7-7-7-7-9-9-9-9-9-9-9-9-5-5-5-5-5-5-5-5-T
A|-5-5-5-5-5-5-5-5-7-7-7-7-7-7-7-7-9-9-9-9-9-9-9-9-5-5-5-5-5-5-5-5-A
E|-----------------5-5-5-5-5-5-5-5-7-7-7-7-7-7-7-7-3-3-3-3-3-3-3-3-R

G|-----------------------------------------------------------------B
D|-----------------------------------------------------------------A
A|-5-5-5-5-5-5-5-5-------------------------------------------------S
E|-----------------5-5-5-5-5-5-5-5-7-7-7-7-7-7-7-7-3-3-3-3-3-3-3-3-S

SOLO

e|-------------------------------------------------------------------------G
B|-9-9-7-9-7---7---7---9-9-7-9-7---7---7-9-9-9-9-9-9-9-9-11-11-11-11-11-11-U
G|-----------5---7---------------5---7-------------------------------------I
D|-------------------------------------------------------------------------T
A|-------------------------------------------------------------------------A
E|-------------------------------------------------------------------------R

G|-------------------------------------------------------------------------B
D|-------------------------------------------------------------------------A
A|---------------------0-3-3-3-3-3-3-3-3-3-3-3-----------------------------S
E|-3-3-3-3-3-3-3-3-3-3-------------------------0-1-1-1-1-1-1-1-1-1-3-3-3-3-S

MINIMUM WAGE please visit the myspace at www.Myspace.com/Minimumwage101/


Tap to rate this tab
 
# A B C D E F G H I J K L M N O P Q R S T U V W X Y Z