Song name
# A B C D E F G H I J K L M N O P Q R S T U V W X Y Z

Misc Unsigned Bands - Sin Censura - Vete tab

Help us improve GuitareTab! Take a short survey!
----------------------------------------------------------------------------
Vete - Sin Censura
----------------------------------------------------------------------------

Tabbed by: JUANCHITO 182
Email:greenchat182@hotmail.com
INTRO

GUITARRA 1

E|-----------------------------------------------------|
B|-----------------------------------------------------|
G|------1-----1----------------------------------------|
D|--2-2----22-------4-----4------6-----6------4----4---|X3
A|--------------2-2----22----4-4----44----2-2---22-----|
E|-----------------------------------------------------|

GUITARRA 2

E|-------------------------------------------------------|
B|-------------------------------------------------------|
G|--9-9-9--9-9-9-----------------------------------------|
D|--9-9-9--9-9-9---9-9-9--9-9-9---11-11-11--7-7-7--9-9-9-|X2               
A|--7-7-7--7-7-7---9-9-9--9-9-9---11-11-11--7-7-7--9-9-9-|
E|-----------------7-7-7--7-7-7---9--9--9---5-5-5--7-7-7-|

VERSO

GUITARRA 1

E|---------------------------------------------|
B|---------------------------------------------|
G|---------------------------------------------|
D|--1/2-2-2-2-2-2-2--1/2-2-2-2-2-2-2-2---------|X8
A|---------------------------------------------|
E|---------------------------------------------|

GUITARRA 2

E|-------------------------------------------------------|
B|-------------------------------------------------------|
G|--9-9-9--9-9-9-----------------------------------------|
D|--9-9-9--9-9-9---9-9-9--9-9-9---11-11-11--7-7-7--9-9-9-|X4               
A|--7-7-7--7-7-7---9-9-9--9-9-9---11-11-11--7-7-7--9-9-9-|
E|-----------------7-7-7--7-7-7---9--9--9---5-5-5--7-7-7-|

BRIDGE

GUITARRA 1

E|-----------------------------------------------------|
B|-----------------------------------------------------|
G|------1-----1----------------------------------------|
D|--2-2----22-------4-----4------6-----6------4----4---|X3
A|--------------2-2----22----4-4----44----2-2---22-----|
E|-----------------------------------------------------|

GUITARRA 2

E|-------------------------------------------------------|
B|-------------------------------------------------------|
G|--9-9-9--9-9-9-----------------------------------------|
D|--9-9-9--9-9-9---9-9-9--9-9-9---11-11-11--7-7-7--9-9-9-|X2               
A|--7-7-7--7-7-7---9-9-9--9-9-9---11-11-11--7-7-7--9-9-9-|
E|-----------------7-7-7--7-7-7---9--9--9---5-5-5--7-7-7-|

VERSO - PRE CORO

GUITARRA 1

E|---------------------------------------------|
B|---------------------------------------------|
G|---------------------------------------------|
D|--1/2-2-2-2-2-2-2--1/2-2-2-2-2-2-2-2---------|X8
A|---------------------------------------------|
E|---------------------------------------------|

GUITARRA 2

E|-------------------------------------------------------|
B|-------------------------------------------------------|
G|--9-9-9--9-9-9-----------------------------------------|
D|--9-9-9--9-9-9---9-9-9--9-9-9---11-11-11--7-7-7--9-9-9-|X4               
A|--7-7-7--7-7-7---9-9-9--9-9-9---11-11-11--7-7-7--9-9-9-|
E|-----------------7-7-7--7-7-7---9--9--9---5-5-5--7-7-7-|

CORO

GUITARRA 1 Y 2

E|-------------------------------------------------------|
B|-------------------------------------------------------|
G|--9-9-9--9-9-9-----------------------------------------|
D|--9-9-9--9-9-9---9-9-9--9-9-9---11-11-11--7-7-7--9-9-9-|X4               
A|--7-7-7--7-7-7---9-9-9--9-9-9---11-11-11--7-7-7--9-9-9-|
E|-----------------7-7-7--7-7-7---9--9--9---5-5-5--7-7-7-|

VERSO - POS CORO

E|-------------------------------------------------------|
B|-------------------------------------------------------|
G|--9-9-9--9-9-9-----------------------------------------|
D|--9-9-9--9-9-9---9-9-9--9-9-9---11-11-11--7-7-7--9-9-9-|X1               
A|--7-7-7--7-7-7---9-9-9--9-9-9---11-11-11--7-7-7--9-9-9-|
E|-----------------7-7-7--7-7-7---9--9--9---5-5-5--7-7-7-|

CORO

GUITARRA 1 Y 2

E|-------------------------------------------------------|
B|-------------------------------------------------------|
G|--9-9-9--9-9-9-----------------------------------------|
D|--9-9-9--9-9-9---9-9-9--9-9-9---11-11-11--7-7-7--9-9-9-|X4               
A|--7-7-7--7-7-7---9-9-9--9-9-9---11-11-11--7-7-7--9-9-9-|
E|-----------------7-7-7--7-7-7---9--9--9---5-5-5--7-7-7-|

BRIDGE 2

GUITARRA 1 Y 2

E|-------------------------------------------------------|
B|-------------------------------------------------------|
G|--9-9-9--9-9-9-----------------------------------------|
D|--9-9-9--9-9-9---9-9-9--9-9-9---11-11-11--7-7-7--9-9-9-|X2               
A|--7-7-7--7-7-7---9-9-9--9-9-9---11-11-11--7-7-7--9-9-9-|
E|-----------------7-7-7--7-7-7---9--9--9---5-5-5--7-7-7-|

VERSO - PRE CORO

GUITARRA 1

E|---------------------------------------------|
B|---------------------------------------------|
G|---------------------------------------------|
D|--1/2-2-2-2-2-2-2--1/2-2-2-2-2-2-2-2---------|X4
A|---------------------------------------------|
E|---------------------------------------------|

GUITARRA 2

E|-------------------------------------------------------|
B|-------------------------------------------------------|
G|--9-9-9--9-9-9-----------------------------------------|
D|--9-9-9--9-9-9---9-9-9--9-9-9---11-11-11--7-7-7--9-9-9-|X2               
A|--7-7-7--7-7-7---9-9-9--9-9-9---11-11-11--7-7-7--9-9-9-|
E|-----------------7-7-7--7-7-7---9--9--9---5-5-5--7-7-7-|

CORO

GUITARRA 1 Y 2

E|-------------------------------------------------------|
B|-------------------------------------------------------|
G|--9-9-9--9-9-9-----------------------------------------|
D|--9-9-9--9-9-9---9-9-9--9-9-9---11-11-11--7-7-7--9-9-9-|X2               
A|--7-7-7--7-7-7---9-9-9--9-9-9---11-11-11--7-7-7--9-9-9-|
E|-----------------7-7-7--7-7-7---9--9--9---5-5-5--7-7-7-|

VERSO 

GUITARRA 1 Y 2

E|-------------------------------------------------------|
B|-------------------------------------------------------|
G|--9-9-9--9-9-9-----------------------------------------|
D|--9-9-9--9-9-9---9-9-9--9-9-9---11-11-11--7-7-7--9-9-9-|X2               
A|--7-7-7--7-7-7---9-9-9--9-9-9---11-11-11--7-7-7--9-9-9-|
E|-----------------7-7-7--7-7-7---9--9--9---5-5-5--7-7-7-|

OUTRO

GUITARRA 1 Y 2

E|-------------------------------------------------------|
B|-------------------------------------------------------|
G|--9-9-9--9-9-9-----------------------------------------|
D|--9-9-9--9-9-9---9-9-9--9-9-9---11-11-11--7-7-7--9-9-9-|X3               
A|--7-7-7--7-7-7---9-9-9--9-9-9---11-11-11--7-7-7--9-9-9-|
E|-----------------7-7-7--7-7-7---9--9--9---5-5-5--7-7-7-|

E|----------------|
B|----------------|
G|----------------|
D|--7-7-7--9-9-9--|X3
A|--7-7-7--9-9-9--|
E|--5-5-5--7-7-7--|

E|----------------|
B|----------------|
G|-----9-9-9------|
D|-----9-9-9------|X4
A|-----7-7-7------|
E|----------------|

http://www.myspace.com/sincensurapunk
Related for Sin Censura - Vete tab