Song name
# A B C D E F G H I J K L M N O P Q R S T U V W X Y Z

Misc Unsigned Bands - Remedy - Gone In The Wind tab

This song is done on acoustic.
Intro:

E-3-----2-----0---------|
B-3-----3-----0-----1---|
G-0-----2-----0-----0---|(X4)
D-0-----0-----2-----2---|
A-2-----0-----2-----3---|
E-3-----0-----0---------|

Verse:

E-3-----3-----3-----3-----3-----3-----2-------------|
B-3-----3-----3-----3-----3-----3-----3-------------|
G-0-----0-----0-----0-----0-----0-----2-------------|(2X)
D-2-----0-----2-----0-----2-----0-----0-------------|
A-3-----2-----3-----2-----3-----2-----0-------------|
E-------3-----------3-----------3-----0-------------|

Chorus:

E--2------------3----|
B--3------1-----3----|
G--2------0-----0----|
D--0------2-----0----|(X2)
A--0------3-----2----|
E--0------------3----|

Fill: Played over intro

E------------------------------------------------------------------|
B-7b-7-7-7-7/11-7---------------------------------7---9---12-------|
G-----------------7b-7-7-7-7/11-7--5-5-5-7-5-9-7----9---9----0-----|
D------------------------------------------------------------------|
A------------------------------------------------------------------|
E------------------------------------------------------------------|

Verse
then
chorus then intro for outro

Check out our website at www.unsigned.com/remedy
Tap to rate this tab
# A B C D E F G H I J K L M N O P Q R S T U V W X Y Z