Song name
# A B C D E F G H I J K L M N O P Q R S T U V W X Y Z

Misc Unsigned Bands - Minimum Wage - Get Over It tab

INTRO - PALM MUTED

e|---------------------------------------------------G
B|---------------------------------------------------U
G|-8-8-8-8-8-8-8-8-----------------------------------I
D|-8-8-8-8-8-8-8-8-6-6-6-6-8-8-8-8-------------------T
A|-6-6-6-6-6-6-6-6-6-6-6-6-8-8-8-8-------------------A
E|-----------------4-4-4-4-6-6-6-6-------------------R

:bass comes in after 4 times

G|---------------------------------------------------B
D|---------------------------------------------------A
A|---------------------------------------------------S
E|-6---------------4-------6-------------------------S

CHORUS

e|--------------------------------G
B|--------------------------------U
G|-8-8-8-8------------------------I
D|-8-8-8-8-6-6-6-8----------------T
A|-6-6-6-6-6-6-6-8----------------A
E|---------4-4-4-6----------------R

G|--------------------------------B
D|--------------------------------A
A|-6-6-6-6------------------------S
E|---------4-4-4-6----------------S

BRIDGE

e|--------------------------------G
B|--------------------------------U
G|-8------------------------------I
D|-8--8-8-8-6-6-6-8-8-8-----------T
A|-6--8-8-8-6-6-6-8-8-8-----------A
E|----6-6-6-4-4-4-6-6-6-----------R


VERSE

e|--------------------------------G
B|--------------------------------U
G|-8-8-8-8------------------------I
D|-8-8-8-8-6-6-6-8-8-8-8-8-8------T
A|-6-6-6-6-6-6-6-8-8-8-8-8-8------A
E|---------4-4-4-6-6-6-6-6-6------R

G|--------------------------------B
D|--------------------------------A
A|-6-6-6-6------------------------S
E|---------4-4-4-6-6-6-6-6-6------S


OUTRO - PALM MUTED

e|---------------------------------------------------G
B|---------------------------------------------------U
G|-8-8-8-8-8-8-8-8-----------------------------------I
D|-8-8-8-8-8-8-8-8-6-6-6-6-8-8-8-8-------------------T
A|-6-6-6-6-6-6-6-6-6-6-6-6-8-8-8-8-------------------A
E|-----------------4-4-4-4-6-6-6-6-------------------R
Tap to rate this tab
# A B C D E F G H I J K L M N O P Q R S T U V W X Y Z