Song name
# A B C D E F G H I J K L M N O P Q R S T U V W X Y Z

Misc Unsigned Bands - Glimpse Of Darkness - Breaking The Habit Lp Cover tab

Intro (played before piano kicks in)

eb|----6-4-3---6-4-3---6-4-3---6-4-3---|
Bb|---6-------6-------6-------6--------|
Gb|------------------------------------|
Db|------------------------------------|
Ab|------------------------------------|
Eb|------------------------------------|


Verses

eb|------------------------------------|
Bb|------------------------------------|
Gb|------------------------------------|
Db|---5-6-8-5-5--5-5-6h5-5-5-----------|
Ab|------------------------------------|
Eb|------------------------------------|

Chorus/Bridge

eb|------------------------------------|
Bb|------------------------------------|
Gb|------5--8-8-10---------------------|
Db|------------------------------------|
Ab|------------------------------------|
Eb|------------------------------------|
Tap to rate this tab
# A B C D E F G H I J K L M N O P Q R S T U V W X Y Z