Song name
# A B C D E F G H I J K L M N O P Q R S T U V W X Y Z

Misc Unsigned Bands - Butthole - Poop On A Pancake tab

intro verse
|---------------|
|---------------|
|---------------|
|---------------|
|-2-2-0-2-2-0-0-|
|-3-3-0-3-3-0-0-|

chorus
|-------------------------|
|-------------------------|
|-------------------------|
|-------------------------|
|-4-4-4-0-0-0-5-5-5-0-0-0-|
|-5-5-5-0-0-0-6-6-6-0-0-0-|


solo
|------------------------------------------------------|
|------------------------------------------------------|
|----2-0-3-0--5-4--6-3-2-6-5-4-2-4-3-3-3-2-1-5-3-2-5-1-|
|------------------------------------------------------|
|------------------------------------------------------|
|------------------------------------------------------|
Tap to rate this tab
# A B C D E F G H I J K L M N O P Q R S T U V W X Y Z