Song name
# A B C D E F G H I J K L M N O P Q R S T U V W X Y Z

Misc Unsigned Bands - Saints And Martyrs - In My Shadow tab

Guitar tabs:

Intro: *PLAY TWICE*
E|------------------------------------------|
B|------------------------------------------|
G|------------------------------------------|
D|------------------------------------------|
A|-3-5-6-5-3-5-6-5-3-5--3-5-6-5-3-5-6-5-3-5-|
D|-3-5-6-5-3-5-6-5-3-5--3-5-6-5-3-5-6-5-3-5-|
   Guitar 1 only	       Guitar 2 enters (bass & drums enter 2nd time for intro)

Main Riff:
E|--------------------------------------------------------------------|
B|--------------------------------------------------------------------|
G|--------------------------------------------------------------------|
D|-*-*-*-*-*-*------*-*-*-*-*-*------*-*-*-*-*-*------*-*-*-*-*-*-----|
A|-0-0-0-0-0-0------0-0-0-0-0-0-3h5--0-0-0-0-0-0------0-0-0-0-0-0-3h5-|
D|-0-0-0-0-0-0-2p0--0-0-0-0-0-0-3h5--0-0-0-0-0-0-2p0--0-0-0-0-0-0-3h5-|
*PLAY 4 TIMES*

Verse:
E|-----------------------------------------------------------------|
B|-----------------------------------------------------------------|
G|-----------------------------------------------------------------|
D|-----------------------------------------------------------------|
A|-00-00-00-00-----00-00-00-00-3h5-00-00-00-00-----00-00-00-00-3h5-|
D|-00-00-00-00-2p0-00-00-00-00-3h5-00-00-00-00-2p0-00-00-00-00-3h5-|
*PLAY TWICE*

Chorus:
E|-----------------------------------------------------|
B|-----------------------------------------------------|
G|-----------------------------------------------------|
D|-----------------------------------------------------|
A|-0-0-0-2-0-0-3-0-0-5-0-3-0-0-0-0-2-0-0-3-0-0-5-0-3-0-|
D|-0-0-0-2-0-0-3-0-0-5-0-3-0-0-0-0-2-0-0-3-0-0-5-0-3-0-|

Solo 1:
E|-15^15^15^15^-151312----------------------------------------------------|
B|--------------------151312----------------------------------------------|
G|--------------------------151312-----------------------------12h14p12h14|
D|--------------------------------151312-------------------1214-----------|
A|--------------------------------------151312---------1214---------------|
D|--------------------------------------------171514----------------------|

E|------------------121515^-12h15p12h17p12h15p12h17-17p12--17p12-|
B|-12h15^p12h15^p12--------------------------------------12------|
G|---------------------------------------------------------------|
D|---------------------------------------------------------------|
A|---------------------------------------------------------------|
D|---------------------------------------------------------------|

E|-15p12--15p12------------------2017---------------------------------1720-|
B|------12-----12-15p12--15p12-------2017-------------------------1720-----|
G|---------------------12-----12---------1917-----------------1719---------|
D|-------------------------------------------1917---------1719-------------|
A|-----------------------------------------------1917-1719-----------------|
D|------------------------------------------------------------------------\|



Solo 2:
E|----12-12---12-12---12-12---12-12---------------------------------------|
B|-15^-----15^-----15^-----15^------15p12--12-14p11--11-13p10--10-12p9--9-|
G|---------------------------------------14--------13--------12-------11--|
D|------------------------------------------------------------------------|
A|------------------------------------------------------------------------|
D|------------------------------------------------------------------------|

E|-------------------------------------12^-12^-12^-1512--------------------|
B|-11p8--8-10p7-7-7--7--7--7---------------------------1512----------------|
G|-----10------9--9^-9^-9^-9^-7-------7--------------------1412------------|
D|-----------------------------9-7-7-9-------------------------1412--------|
A|-----------------------------------------------------------------1412----|
D|---------------------------------------------------------------------1714|

Key:
h hammer-on
p: pull off
*: palm mute
^: bend up
\: pick slide down
Tap to rate this tab
 
# A B C D E F G H I J K L M N O P Q R S T U V W X Y Z