Song name
# A B C D E F G H I J K L M N O P Q R S T U V W X Y Z

Misc Unsigned Bands - 4pence - Heaven Cries While Hell Burns tab

yo people,
4pence doin it all,
so letz burn it up:

e|-------------------------------------------------------------------------|
b|-------------------------------------------------------------------------|
g|-------------------------------------1-1--------------2-2----------------|
d|---0-0--------------2-2-------------2-2-2-(repeat)---2-2-2-(repeat)------|
a|--2-2-2-(repeat)---2-2-2-(repeat)--2----------------3--------------------|
E|-3----------------0------------------------------------------------------|
 
 continued(without any rest):

e|-------------------------------------3-3--------------3-3----------------|
b|---1-1--------------1-1-------------4-4-4-(repeat)---5-5-5-(repeat)------|
g|--2-2-2-(repeat)---0-0-0-(repeat)--5----------------5--------------------|
d|-2----------------2------------------------------------------------------|
a|-------------------------------------------------------------------------|
E|-------------------------------------------------------------------------|

thatz all guyz.the meatllic part comes after the intro.
u should now this is an own band of mine.
we aint released any records and aint finished this song yet.
we just want to test how people appreciate us.

subject of concern:
u will be able to figure out that the whole intro is on chords.

thanx guyz......................
Tap to rate this tab
 
# A B C D E F G H I J K L M N O P Q R S T U V W X Y Z