Song name
# A B C D E F G H I J K L M N O P Q R S T U V W X Y Z

Misc Unsigned Bands - Red Day - Strange Things Happen tab

Intro (You can use a capo on the 6th fret, that's kinda easy =D)


--6--x---9-9--x--8-8-8-8-8-8-8----|
--6--x---6-6--x--9-9-9-9-9-9-9----|
--6--x---6-6--x--8-8-8-8-8-8-8----|   Repeat twice
--8--x---6-6--x--6-6-6-6-6-6-6----|
--8--x---8-8--x--6-6-6-6-6-6-6----|
--6--x---9-9--x--6-6-6-6-6-6-6----|

Then

--6-6-6-6---6-6-6-6-6-6-6---|
--8-8-8-8---7-7-7-7-7-7-7---|
--8-8-8-8---6-6-6-6-6-6-6---|
--8-8-8-8---8-8-8-8-8-8-8---|
--6-6-6-6---9-9-9-9-9-9-9---|
--6-6-6-6---6-6-6-6-6-6-6---|


Verse:


--6--x---9-9--x--8-8-8-8-8-8-8----|
--6--x---6-6--x--9-9-9-9-9-9-9----|
--6--x---6-6--x--8-8-8-8-8-8-8----|   Repeat
--8--x---6-6--x--6-6-6-6-6-6-6----|
--8--x---8-8--x--6-6-6-6-6-6-6----|
--6--x---9-9--x--6-6-6-6-6-6-6----|


Chorus:

--6-6-6-6---6-6-6-6-6-6-6---|
--8-8-8-8---7-7-7-7-7-7-7---|
--8-8-8-8---6-6-6-6-6-6-6---|
--8-8-8-8---8-8-8-8-8-8-8---|
--6-6-6-6---9-9-9-9-9-9-9---|
--6-6-6-6---6-6-6-6-6-6-6---|

Outro:

--6~-------------6--|
--8~--9/8/9/8~---8--|
--8~-------------8--|
--8~-------------8--|
--6~-------------6--|
--6~-------------6--|

That's all! =)


Intro
Verse X8
Chorus X2
Verse X7
Chorus X3
Verse X21
Outro


And wtf, Red Day is not an "Unsigned Band"!
Here's the link to their website:
www.reddaymusic.tk
Tap to rate this tab
# A B C D E F G H I J K L M N O P Q R S T U V W X Y Z