Song name
# A B C D E F G H I J K L M N O P Q R S T U V W X Y Z

Misc Unsigned Bands - The Explicits - Indestructible tab

the explicits - indestructible

tuning drop 'd'

'=tremolo picking
h=hammer-on
p=pull-off


e|-----------------------------------------------------|
b|-----------------------------------------------------|
g|-----------------------------------------------------|
d|-----------------------------------------------------|2x
a|-'5'h7p5h7p5--'1'h3p1h3p1--'3'h5p3h5p3h5p3h5p3h5p3---|
D|-----------------------------------------------------|

e|-----------------------------------------------------|
b|-----------------------------------------------------|
g|-7~----3~------xx5xx5xx5xx5xx------------------------|
d|-7~----3~------xx5xx5xx5xx5xx------------------------|2x
a|-5~----1~------xx3xx3xx3xx3xx------------------------|
D|-----------------------------------------------------|

e|-----------------------------------------------------|
b|-----------------------------------------------------|
g|-7------3------5-------------------------------------|
d|-7(8x)--3(8x)--5(14x)--------------------------------|4x
a|-5------1------3-------------------------------------|
D|-----------------------------------------------------|

e|-----------------------------------------------------|
b|-----------------------------------------------------|
g|---------------7-------------------------------------|
d|-3------7------7(14x)--------------------------------|4x
a|-3(8x)--7(8x)--5-------------------------------------|
D|-3------7--------------------------------------------|

e|-----------------------------------------------------|
b|-----------------------------------------------------|
g|-----------------------------------------------------|
d|-----------------------------------------------------|
a|-'5'h7p5h7p5--'1'h3p1h3p1--'3'h5p3h5p3h5p3h5p3h5p3---|
D|-----------------------------------------------------|

e|-----------------------------------------------------|
b|-----------------------------------------------------|
g|-----------------------------------------------------|
d|-----------------------------------------------------|
a|-'5'h7p5h7p5--'1'h3p1h3p1--'3'h5p3h5p3h5b------------|
D|-----------------------------------------------------|

e|-----------------------------------------------------|
b|-----------------------------------------------------|
g|-----------------------------------------------------|
d|-----------------------------------------------------|
a|-'5'h7p5h7p5--'1'h3p1h3p1--'3'h5p3h5p3h5p3h5p3h5p3---|
D|-----------------------------------------------------|

e|-----------------------------------------------------|
b|-----------------------------------------------------|
g|------------------------------5----------------------|
d|------------------------------5(14x)-----------------|
a|-'5'h7p5h7p5--'1'h3p1h3p1-----3----------------------|
D|-----------------------------------------------------|

e|-----------------------------------------------------|
b|-----------------------------------------------------|
g|-7------3------5-------------------------------------|
d|-7(8x)--3(8x)--5(14x)--------------------------------|4x
a|-5------1------3-------------------------------------|
D|-----------------------------------------------------|

e|-----------------------------------------------------|
b|-----------------------------------------------------|
g|---------------7-------------------------------------|
d|-3------7------7(14x)--------------------------------|
a|-3(8x)--7(8x)--5-------------------------------------|
D|-3------7--------------------------------------------|



i dont noe how many times they play diz..u figure it out..



this is nice song..this is my second tab..pls rate..thnx..aniting juz mail me at vengeance_1989@hotmail.com
Tap to rate this tab
# A B C D E F G H I J K L M N O P Q R S T U V W X Y Z