Song name
# A B C D E F G H I J K L M N O P Q R S T U V W X Y Z

Misc Unsigned Bands - Subtle Rebellion - Confession tab

Artist:Subtle Rebellion
Song:Confession

Capo:2nd Fret
Tuning:Standard

Intro:
--------------------------------------|
--------0-------0-------0-------0-----|
------3-------3-------3---3---3---3---|
----4-------4-------4-------4-------4-|
--------------------------------------|
--0-------2-------4-------------------| 3x

Verse 1:
       Baby         Just take my hand
       Maybe        Your whats on my mind
       I Can't      Stop thinking of you
       You have     Some hold on me

      When you walk I can't move
      When you talk I can't breathe
      So baby,      Just come with me so I can show you
--------------------------------------|
--------0-------0-------0-------0-----|
------3-------3-------3---3---3---3---|
----4-------4-------4-------4-------4-|
--------------------------------------|
--0-------2-------4-------------------|

Chorus: (Strum Pattern: down-down-up-up-down-up)

I love the way I love the way I love you
I love the way you talk so smooth
-2-2----------------2-2---------------|
-3-3--2-2-----------3-3--2-2----------|
-2-2--2-2--2-2-2-2--2-2--2-2---2-2-2-2|
-----------2-2-2-2-------------2-2-2-2|
--------------------------------------|

Having you in my arms would be a blessing
-2-2----------------------------------|
-3-3---3-3--1-1-----------------------|
-2-2---2-2----------------------------|
-------2-2--2-2-----------------------|
------------3-3-----------------------|
--------------------------------------|

'Cuz in this song im confessing
-2-2--------3-3-3---------------------|
-3-3---3-3----------------------------|
-2-2---2-2----------------------------|
-------2-2----------------------------|
------------2-2-3---------------------|
------------3-2-3---------------------|

My Love For You

Verse 2:

I have              the feeling
That you want       this just as much
I know              we can make this right
So come on baby,    let me show you how
--------------------------------------|
--------0-------0-------0-------0-----|
------3-------3-------3---3---3---3---|
----4-------4-------4-------4-------4-|
--------------------------------------|
--0-------2-------4-------------------|

Chorus:
I love the way I love the way I love you
I hate the way you have no clue
-2-2----------------2-2---------------|
-3-3--2-2-----------3-3--2-2----------|
-2-2--2-2--2-2-2-2--2-2--2-2---2-2-2-2|
-----------2-2-2-2-------------2-2-2-2|
--------------------------------------|

Having you in my arms would be a blessing
-2-2----------------------------------|
-3-3---3-3--1-1-----------------------|
-2-2---2-2----------------------------|
-------2-2--2-2-----------------------|
------------3-3-----------------------|
--------------------------------------|

'Cuz in this song im confessing
-2-2--------3-3-3---------------------|
-3-3---3-3----------------------------|
-2-2---2-2----------------------------|
-------2-2----------------------------|
------------2-2-3---------------------|
------------3-3-3---------------------|

My Love For You

Solo: (Strum:down-up)
-----x-------3-3-x----------------------|
-----x-2-2-------x----------------------|
-1-1-x-2-2-------x-1-1------------------|
-2-2-x-----------x----------------------|
-2-2-x-------2-2-x-2-2------------------|
-----x-------3-3-x----------------------| (4x)

I know we're not there yet But I know we will some day
'Cuz my love for you is oh so deep, oh so true
-4-4-4--5-5-5--2-2-2------------------|
-4-4-4--5-5-5--2-2-2------------------|
-6-6-6--7-7-7--4-4-4------------------|
-6-6-6--7-7-7--4-4-4------------------|
-4-4-4--5-5-5--2-2-2------------------|
-4-4-4--5-5-5--2-2-2------------------|

Chorus:
I love the way I love the way I love you
I hate the way you have no clue
-2-2----------------2-2---------------|
-3-3--2-2-----------3-3--2-2----------|
-2-2--2-2--2-2-2-2--2-2--2-2---2-2-2-2|
-----------2-2-2-2-------------2-2-2-2|
--------------------------------------|

Having you in my arms would be a blessing
-2-2----------------------------------|
-3-3---3-3--1-1-----------------------|
-2-2---2-2----------------------------|
-------2-2--2-2-----------------------|
------------3-3-----------------------|
--------------------------------------|

'Cuz in this song im confessing
-2-2--------3-3-3---------------------|
-3-3---3-3----------------------------|
-2-2---2-2----------------------------|
-------2-2----------------------------|
------------2-2-3---------------------|
------------3-3-3---------------------|

My Love For You

Outro:
So Baby             Just take my hand
I know              We can make this right
--------------------------------------0|
--------0-------0-------0-------0-----0|
------3-------3-------3---3---3---3---3|
----4-------4-------4-------4-------4-4|
--------------------------------------0|
--0-------2-------4-------------------0|

Questions? Comments? E-mail me at SubtleRebellion@gmail.com
Tap to rate this tab
 
# A B C D E F G H I J K L M N O P Q R S T U V W X Y Z