Song name
# A B C D E F G H I J K L M N O P Q R S T U V W X Y Z

Misc Unsigned Bands - Glimpse Of Darkness - Shadow tab

Glimpse of Darkness
Shadow

Intro/verse (intro accompanied by piano & violin)

eb--------------------------------------------|
bb--------------------------------------------|
gb--------------------------------------------|
Db----------------2---------------------------|  repeat 16x
Ab--2-2-2-2-2-2-2---2-3-2-2-3-2-2-3-2---------|
Eb--0-0-0-0-0-0-0---0-0-0-0-0-0-0-0-0---------|

Chorus

eb---------------------------|
bb---------------------------|
gb--------7---5-5-5-5-5-5----|
Db--2-x-x-7-x-5-5-5-5-5-5-x--|
Ab--2-x-x-5-x-3-3-3-3-3-3-x--|  repeat 4x
Eb--0-x-x-5-x-3-3-3-3-3-3-x--|

eb---------------------------|
bb---------------------------|
gb---------------------------|
Db---------------------------|
Ab--------0-2-3-2-0----------|  repeat 4x
Eb--0-2-3--------------------|

verse

eb--------------------------------------------|
bb--------------------------------------------|
gb--------------------------------------------|
Db----------------2---------------------------|  repeat 8x
Ab--2-2-2-2-2-2-2---2-3-2-2-3-2-2-3-2---------|
Eb--0-0-0-0-0-0-0---0-0-0-0-0-0-0-0-0---------|

Chorus

eb---------------------------|
bb---------------------------|
gb--------7---5-5-5-5-5-5----|
Db--2-x-x-7-x-5-5-5-5-5-5-x--|
Ab--2-x-x-5-x-3-3-3-3-3-3-x--|  repeat 4x
Eb--0-x-x-5-x-3-3-3-3-3-3-x--|

eb---------------------------|
bb---------------------------|
gb---------------------------|
Db---------------------------|
Ab--------0-2-3-2-0----------|  repeat 8x
Eb--0-2-3--------------------|

Bridge

eb---------------------------|
bb---------------------------|
gb--------2------------------|
Db--2---5-2---5--------------|
Ab--2---5-0---5--------------|  repeat 4x
Eb--0-0-3---0-3--------------|

eb---------------------------------------|
bb---------------------------------------|
gb---------------------------------------|
Db---------------------------------------|
Ab--2-2-2-2-2-2-2-2-2-2-2-2-2-2-2-2-2-2--| repeat 4x
Eb--0-0-0-0-3-0-0-3-0-0-3-0-3-0-3-0-3-0--|

Chorus

eb---------------------------|
bb---------------------------|
gb--------7---5-5-5-5-5-5----|
Db--2-x-x-7-x-5-5-5-5-5-5-x--|
Ab--2-x-x-5-x-3-3-3-3-3-3-x--|  repeat 8x
Eb--0-x-x-5-x-3-3-3-3-3-3-x--|

eb---------------------------|
bb---------------------------|
gb---------------------------|
Db---------------------------|
Ab--------0-2-3-2-0----------|  repeat 8x
Eb--0-2-3--------------------|
Tap to rate this tab
# A B C D E F G H I J K L M N O P Q R S T U V W X Y Z