Guitaretab - guitar tabs
Song name
# A B C D E F G H I J K L M N O P Q R S T U V W X Y Z

Misc Unsigned Bands - Saints And Martyrs - Battle Plan tab

Intro:			Main Riff:
|--------------|-----------------------------------------------------------|
|--------------|-----------------------------------------------------------|
|--------------|-----------------------------------------------------------|
|--------------|-----------------------------------------------------------|
|-6-5-4--------|------------------------4h5h6------------------------------|
|-------6-5-4^-|-0-0-0-0-0-0-0-0-4h5h6h-------0-0-0-0-0-0-0-0-4h5h6-4h5h6--|
                 palm mute----->              palm mute----->
Verse:
|--------------------------------------------------------------------------|
|--------------------------------------------------------------------------|
|--------------------------------------------------------------------------|
|--------------------------------------------------------------------------|
|-------------5/7-------------6/8-------------5/7-------------6/8----------|
|-0-0-0-0-0-0-3/5-0-0-0-0-0-0-4/6-0-0-0-0-0-0-3/5-0-0-0-0-0-0-4/6----------|
*PLAY TWICE*	 palm mute      palm mute     palm mute
 ^palm mute^
Chorus:
|-------------------------------------------|
|-------------------------------------------|
|-------------------------------------------|    
|-------------------------------------------|
|6\5------------------6\5-------------------|
|4\3-0000000000000000-4\3-0000000000000000--|
       palm mute*****	 palm mute*****
|-------------------------------------------|
|-------------------------------------------|
|-------------------------------------------|    
|-------------------------------------------|
|6\5------------------6\5-------------------|
|4\3-0000000000000000-4\3-0000000000000000--|
            palm mute*****	palm mute*****
Solo 1:
|---------------------------------------------------------1215^-|
|----------------------------------------------------1215-------|
|----------------------------12h14-12h14-12h14-12h14------------|
|-12^------------1214^14^14^------------------------------------|
|-----------1214------------------------------------------------|
|------1215-----------------------------------------------------|
t	p	t	p	t	p	t	p	t	p
|12h15h17-12h15h17-12h15h17-12h15h17-12h15h17-12h15h17-12h15h17-2h15h17p15^|
|--------------------------------------------------------------------------|
|--------------------------------------------------------------------------|
|--------------------------------------------------------------------------|
|--------------------------------------------------------------------------|
|--------------------------------------------------------------------------|

|-15p12---15p12---15p12---15p12-----------------------------------|
|------12------12------12------12-15p12---15p12---15p12---15p12---|
|--------------------------------------12------12------12------12-|
|-----------------------------------------------------------------|
|-----------------------------------------------------------------|
|-----------------------------------------------------------------|
[ Tab from: http://www.guitaretab.com/m/misc-unsigned-bands/88926.html ]
|----12----12----14----14----15----15----17----17-21^21^21^21^-|
|-15^---15^---17^---17^---18^---18^---20^---20^----------------|
|--------------------------------------------------------------|
|--------------------------------------------------------------|
|--------------------------------------------------------------|
|--------------------------------------------------------------|


|-17171717-15151515-12121212-15151515-12121212-|
|----------------------------------------------|
|----------------------------------------------|
|----------------------------------------------|
|----------------------------------------------|
|----------------------------------------------|

|-15p12h17p12h15p12h17p12h15p12h17h12h15h12h17h12-12-12-12-12--|
|-------------------------------------------------15^15^15^15^-|
|--------------------------------------------------------------|
|--------------------------------------------------------------|
|--------------------------------------------------------------|
|--------------------------------------------------------------|

|-1512------------------------------------------------------|
|-----1512--------------------------------------------------|
|---------P14-P12-P12^-P12^-P12^----------------------------|
|--------------------------------P14-P12--------------------|
|----------------------------------------P14-P12------------|
|------------------------------------------------P15-P12~~~~|


Solo 2: 
|------------------------------------14----12---12---12---12-1512----------|
|-12h13p12h13p12h13p12h13p12h13p12h13---15^--15^--15^--15^-------1512------|
|--------------------------------------------------------------------14p12-|
|--------------------------------------------------------------------------|
|--------------------------------------------------------------------------|
|--------------------------------------------------------------------------|

|-------------17p15p12h15h17p15p12h15h17-17^-----------------12h13h15-21^-|
|----------------------------------------------------12h13h15-------------|
|-12-14p12-12--------------------------------12h13h15---------------------|
|-------------------------------------------------------------------------|
|-------------------------------------------------------------------------|
|-------------------------------------------------------------------------|

|-21p18--21-20p17--20-19p16--19-18p15--18-17p14--17-16p13--16-15p12--15--|
|------20--------19--------18--------17--------16--------15--------14--12|
|------------------------------------------------------------------------|
|------------------------------------------------------------------------|
|------------------------------------------------------------------------|
|------------------------------------------------------------------------|

|---12-15--12-15--12-15--12-14^-18---15---14---12------------12h13h15-21^|
|-15-----15-----15-----15---------21^--18^--17^--15^-12h13h15------------|
|------------------------------------------------------------------------|
|------------------------------------------------------------------------|
|------------------------------------------------------------------------|
|------------------------------------------------------------------------|

^: bend up
h: hammer-on
p: pull-off
/: slide up
\: slide down
t	p: tapping
P: pinch harmonic
~: hold note

Order of occurance:
Intro
Main Riff x4
Verse x2
Main Riff
Chorus x2
Main Riff x2
Verse x2
Main Riff
Chorus
Main Riff x2
Solo 1 (w/ main riff in background)
Solo 2 (w/ main riff in background)
Main Riff (outro)
Related for Saints And Martyrs - Battle Plan tab