Song name
# A B C D E F G H I J K L M N O P Q R S T U V W X Y Z

Misc Unsigned Bands - Skar - Edge Of Insanity tab

Help us improve GuitareTab! Take a short survey!
E-----------------------------------|
A-----------------------------------|
D-----------------------------------|
G-----------------------------------|
B-----3-------3-------3------5-3----|
E-0-0-3-0-0-0-3-0-0-0-3-0-0-0---5PH-|

E-----------------------------------|
A-----------------------------------|
D-----------------------------------|
G-----------------------------------|
B-----3-------3-------3---2---1-----|
E-0-0-3-0-0-0-3-0-0-0-3-0-2-0-1-----|





PH= Pick Harmonic
Related for Skar - Edge Of Insanity tab