Song name
# A B C D E F G H I J K L M N O P Q R S T U V W X Y Z

Misc Unsigned Bands - Jew Gold Diggers - Declined Love tab

Artist jew gold diggers 
 Song  declined love
 Album my love has been declined

standard tuning
intro verse
|----------------------------------------------|
|----------------------------------------------|
|------------4---------------------4-----------|
|-4----------4----------4----------4-----------|
|-4----------2--2--2--2-4----------2--2--2--2--|
|-2--2--2--2------------2--2--2--2-------------|

Chorus
|-------------------------|
|-------------------------|
|-4--4-4-4-0--4-----0-/9--|
|-4--4-4-4-0--4-----0-/9--|
|-2--2-2-2-0--2-----0-/7--|
|-------------------------|

End With
|-------------------------------------------|
|-------------------------------------------|
|-4-----------------------------------------|
|-4-----------------4-----------------------|
|-2--2---2-----2----4-----------------------|
|-------------------2---2----2-------2--0---|
Tap to rate this tab
 
# A B C D E F G H I J K L M N O P Q R S T U V W X Y Z