Song name
# A B C D E F G H I J K L M N O P Q R S T U V W X Y Z

Misc Unsigned Bands - Jew Gold Diggers - You Are Ending My Life tab

Artist - jew gold diggers
 Song  - you are ending my life
Album  - my love has been declined

intro verse
|------------------------|
|------------------------|
|---------------4---4----|
|-4---4--x-4-0--4---4--0-|
|-4---4--x-4-0--2---2--0-|
|-2---2--x-2-0---------0-|

chorus
|--------------------------|
|--------------------------|
|----------------4-0--4----|
|-4-0--4-0--4-0--4-0--4--0-|
|-4-0--4-0--4-0--2-0--2--0-|
|-2-0--2-0--2-0----------0-|
Tap to rate this tab
 
# A B C D E F G H I J K L M N O P Q R S T U V W X Y Z