Song name
# A B C D E F G H I J K L M N O P Q R S T U V W X Y Z

Misc Unsigned Bands - Sentered Complexe - Where The Beauty Ends tab

Where The Beauty Ends
this is the first single off of "Inverted"
tabbed by TheDisturbed1
Intro
e|-------------------------------------------------------------------------------|
B|-------------------------------------------------------------------------------|
G|-------------------------------------------------------------------------------|
D|-------------------------------------------------------------------------------|
A|-------------------------------------------------------------------------------|
E|-00--33-2b3r2-----00--33-5b6r5---00--33-2b3r2-----00--33-5b6r5-----------------|

e|---------------------------------|
B|---------------------------------|
G|---------------------------------|    X3
D|-22--------------22--------------|
A|-22--55-4b5r4----22--55-7b8r7----|
E|-00--33-2b3r2----00--33-5b6r5----|

Verse
e|----------------------------------------------|
B|----------------------------------------------|
G|----------------------------------------------|     X6
D|---7-5------------------7-5-------------------|
A|-88-8-878-888-5533----88-8-878-555-3311-------|
E|----------------------------------------------|

Chorus
e|------------------------------------|
B|------------------------------------|
G|----------555-xx--------------------|---------
D|-222-xxxx-555-xx-555-xxxx--777-5----|        |   
A|-222-xxxx-333-xx-555-xxxx--777-5----|        |
E|-000-xxxx--------333-xxxx--555-3----|        |
                                               X2
e|------------------------------------|        |
B|------------------------------------|        |
G|----------555-xx--------------------|        |
D|-222-xxxx-555-xx-555-xxxx-5-xx-4----|---------   
A|-222-xxxx-333-xx-555-xxxx-5-xx-4----|
E|-000-xxxx--------333-xxxx-3-xx-2----|

Verse
e|----------------------------------------------|
B|----------------------------------------------|
G|----------------------------------------------|     X6
D|---7-5------------------7-5-------------------|
A|-88-8-878-888-5533----88-8-878-555-3311-------|
E|----------------------------------------------|

Interlude
e|----------------------------------|
B|----------------------------------|
G|-7-777----------5-555-------------|
D|-7-777---333333-5-555--5555-3~----|
A|-5-555---333333-3-333--5555-3~----|
E|---------111111--------3333-1~----|

Chorus
e|------------------------------------|
B|------------------------------------|
G|----------555-xx--------------------|---------
D|-222-xxxx-555-xx-555-xxxx--777-5----|        |   
A|-222-xxxx-333-xx-555-xxxx--777-5----|        |
E|-000-xxxx--------333-xxxx--555-3----|        |
                                               X2
e|------------------------------------|        |
B|------------------------------------|        |
G|----------555-xx--------------------|        |
D|-222-xxxx-555-xx-555-xxxx-5-xx-4----|---------   
A|-222-xxxx-333-xx-555-xxxx-5-xx-4----|
E|-000-xxxx--------333-xxxx-3-xx-2----|

Outro
e|---------------------------------|
B|---------------------------------|
G|---------------------------------|    X6
D|-22--------------22--------------|
A|-22--55-4b5r4----22--55-7b8r7----|
E|-00--33-2b3r2----00--33-5b6r5----|

Lyrics:
You've waited here just to be thrown away
And your a parasite,
Feeding off the last one standing
And now your fallin' 
Fallin' to the ground with clenched fists

Your so afraid that you can't be a part of it
You try so hard to resist the desperate
And now your crawling, you've started to fade
And now your fallin' fallin' away

You'll be faced down when it's over
(consumed by the trends)
You are the trend until it's over
(this is where the beauty ends)
You'll be faced down when it's over
(consumed by the trends)
You are the trend until it's over
(this is where the beauty...) Ends

Your here right now waiting to be blown away
And your pissed because life's pissing you away
Your so afraid cause ya can't be a part of it
You try so hard to resist the desperate
And your fallin' fallin' to the ground 
And your fallin' fallin' Face down
It's all you've ever had
It's all you've ever had

You never took the time to be real
You never gave yourself a chance to last
Now where are all your friends?
This is where the beauty.....Ends

You'll be faced down when it's over
(consumed by the trends)
You are the trend until it's over
(this is where the beauty ends)
You'll be faced down when it's over
(consumed by the trends)
You are the trend until it's over
(this is where the beauty ends)

You are the trend
Where are your friends
You are the trend until it's over
(this is where the beauty....)
You are the trend until it's over

Tap to rate this tab
# A B C D E F G H I J K L M N O P Q R S T U V W X Y Z