Song name
# A B C D E F G H I J K L M N O P Q R S T U V W X Y Z

Misc Unsigned Bands - Blades - Mr Dj tab

Song: Mr. Dj
Artist: Blades
Ear Tabber: Elvin Hayes Gentiles

Intro:
Guitar 1:
e|----------------------|--------------------------|
B|----------------------|--------------------------|
G|----------------------|--------------------------|
D|--77777777--99999999--|--77777777--99999-9-9-9~--|
A|--77777777--99999999--|--77777777--99999-9-9-9~--|
E|--55555555--77777777--|--55555555--77777-7-7-7~--|
Guitar 2:
e|--55555555--77777777--|--55555555--77777-7-7-7~--|
B|--55555555--77777777--|--55555555--77777-7-7-7~--|
G|--66666666--77777777--|--66666666--77777-7-7-7~--|
D|----------------------|--------------------------|
A|----------------------|--------------------------|
E|----------------------|--------------------------|

Verse:
Guitar 1:
e|------------22222222--|        |------------22222222--|
B|------------33333333--|        |--22222222--33333333--|
G|------------44444444--| Then.. |--22222222--44444444--|
D|--7~~~~~~~--44444444--|        |--22222222--44444444--| 3x
A|--7~~~~~~~--22222222--|        |------------22222222--|
E|--5~~~~~~~------------|        |----------------------|
Guitar 2:
e|--5--5-7-5--7~~--7~~--|
B|--5-5-------7~~--7~~--|
G|--6-------6-7~~--7~~--|
D|----------------------| 4x
A|----------------------|
E|----------------------|

Refrain:
e|------------------------------------------------------------------------|
B|------------------------------------------------------------------------|
G|--77777777--99999999--66666666--------------------------------99999999--|
D|--77777777--99999999--66666666--77777777--44444444--66666666--99999999--|
A|--55555555--77777777--44444444--77777777--44444444--66666666--77777777--|
E|--------------------------------55555555--22222222--44444444------------|

Verse:
e|------------22222222--|        |------------22222222--|
B|------------33333333--|        |--22222222--33333333--|
G|------------44444444--| Then.. |--22222222--44444444--|
D|--7~~~~~~~--44444444--|        |--22222222--44444444--| 3x
A|--7~~~~~~~--22222222--|        |------------22222222--|
E|--5~~~~~~~------------|        |----------------------|
Guitar 2:
e|--5--5-7-5--7~~--7~~--|
B|--5-5-------7~~--7~~--|
G|--6-------6-7~~--7~~--|
D|----------------------| 4x
A|----------------------|
E|----------------------|

Refrain:
e|------------------------------------------------------------------------|
B|------------------------------------------------------------------------|
G|--77777777--99999999--66666666--------------------------------99999999--|
D|--77777777--99999999--66666666--77777777--44444444--66666666--99999999--|
A|--55555555--77777777--44444444--77777777--44444444--66666666--77777777--|
E|--------------------------------55555555--22222222--44444444------------|

Chorus:
e|----------------------------------------------------------|
B|----------------------------------------------------------|
G|------------------------------777777777777----------------|
D|--777777777777--999999999999--777777777777--777777777777--| 2x
A|--777777777777--999999999999--555555555555--777777777777--|
E|--555555555555--777777777777----------------555555555555--|

Interlude:
Guitar 1:
e|----------------------|--------------------------|
B|----------------------|--------------------------|
G|----------------------|--------------------------|
D|--77777777--99999999--|--77777777--99999-9-9-9~--|
A|--77777777--99999999--|--77777777--99999-9-9-9~--|
E|--55555555--77777777--|--55555555--77777-7-7-7~--|
Guitar 2:
e|--55555555--77777777--|--55555555--77777-7-7-7~--|
B|--55555555--77777777--|--55555555--77777-7-7-7~--|
G|--66666666--77777777--|--66666666--77777-7-7-7~--|
D|----------------------|--------------------------|
A|----------------------|--------------------------|
E|----------------------|--------------------------|

Verse:
Guitar 1:
e|------------22222222--|        |------------22222222--|
B|------------33333333--|        |--22222222--33333333--|
G|------------44444444--| Then.. |--22222222--44444444--|
D|--7~~~~~~~--44444444--|        |--22222222--44444444--| 3x
A|--7~~~~~~~--22222222--|        |------------22222222--|
E|--5~~~~~~~------------|        |----------------------|
Guitar 2:
e|--5--5-7-5--7~~--7~~--|        |--5--5-7-5--7~~---------|
B|--5-5-------7~~--7~~--|        |--5-5-------7~~---------|
G|--6-------6-7~~--7~~--| Then.. |--6-------6-7~~-16^-16^-|
D|----------------------|        |------------------------|
A|----------------------|        |------------------------|
E|----------------------|        |------------------------|
(continued)
e|--5--5-7-5--7~~--7~~--|
B|--5-5-------7~~--7~~--|
G|--6-------6-7~~--7~~--|
D|----------------------| 2x
A|----------------------|
E|----------------------|

Refrain:
e|------------------------------------------------------------------------|
B|------------------------------------------------------------------------|
G|--77777777--99999999--66666666--------------------------------99999999--|
D|--77777777--99999999--66666666--77777777--44444444--66666666--99999999--|
A|--55555555--77777777--44444444--77777777--44444444--66666666--77777777--|
E|--------------------------------55555555--22222222--44444444------------|

Adlib:
Guitar 1:
e|----------------------------------------------------------|
B|----------------------------------------------------------|
G|------------------------------777777777777----------------|
D|--777777777777--999999999999--777777777777--777777777777--| 2x
A|--777777777777--999999999999--555555555555--777777777777--|
E|--555555555555--777777777777----------------555555555555--|
Guitar 2:
e|--------------17^-17^-16-----17^-17^-16----19-17~~--|
B|---------15~------------17~------------17~----------|
G|--/14-14--------------------------------------------|
D|----------------------------------------------------|
A|----------------------------------------------------|
E|----------------------------------------------------|
(continued)
e|--------------17^-17^-16-----17^-17^-19-19^-19-17~--|
B|---------15~------------17~-------------------------|
G|--/14-14--------------------------------------------|
D|----------------------------------------------------|
A|----------------------------------------------------|
E|----------------------------------------------------|

Chorus:
e|----------------------------------------------------------|
B|----------------------------------------------------------|
G|--2~~~~--2~~~~----------------777777777777----------------|
D|--2~~~~--2~~~~--999999999999--777777777777--777777777777--| 
A|--0~~~~--0~~~~--999999999999--555555555555--777777777777--|
E|----------------777777777777----------------555555555555--|
(continued)
e|----------------------------------------------------------|
B|----------------------------------------------------------|
G|------------------------------777777777777----------------|
D|--777777777777--999999999999--777777777777--777777777777--| 
A|--777777777777--999999999999--555555555555--777777777777--|
E|--555555555555--777777777777----------------555555555555--|
(continued)
e|----------------------------------------------------------|
B|----------------------------------------------------------|
G|------------------------------7-7-7-7-7-7-----------------|
D|--7-7-7-7-7-7---9-9-9-9-9-9---7-7-7-7-7-7---7-7-7-7-7-7---| 2x
A|--7-7-7-7-7-7---9-9-9-9-9-9---5-5-5-5-5-5---7-7-7-7-7-7---|
E|--5-5-5-5-5-5---7-7-7-7-7-7-----------------5-5-5-5-5-5---|

Outro:
Guitar 1:
e|----------------------|----------------------|
B|----------------------|----------------------|
G|----------------------|----------------------|
D|--77777777--99999999--|--77777777--99999999--|
A|--77777777--99999999--|--77777777--99999999--|
E|--55555555--77777777--|--55555555--77777777--|
(continued)
e|----------------------|--------------------------|
B|----------------------|--------------------------|
G|----------------------|--------------------------|
D|--77777777--99999999--|--77777777--9-9-9-7-7-7~--|
A|--77777777--99999999--|--77777777--9-9-9-7-7-7~--|
E|--55555555--77777777--|--55555555--7-7-7-5-5-5~--|
Guitar 2:
e|--55555555--77777777--|--55555555--77777777--|
B|--55555555--77777777--|--55555555--77777777--|
G|--66666666--77777777--|--66666666--77777777--|
D|----------------------|----------------------|
A|----------------------|----------------------|
E|----------------------|----------------------|
(continued)
e|--55555555--77777777--|--55555555--7-7-7-5-5-5~--|
B|--55555555--77777777--|--55555555--7-7-7-5-5-5~--|
G|--66666666--77777777--|--66666666--7-7-7-6-6-6~--|
D|----------------------|--------------------------|
A|----------------------|--------------------------|
E|----------------------|--------------------------|

enjoy....
Tap to rate this tab
# A B C D E F G H I J K L M N O P Q R S T U V W X Y Z