Guitaretab - guitar tabs
Song name
# A B C D E F G H I J K L M N O P Q R S T U V W X Y Z

Misc Unsigned Bands - The Official - We Are Still Here tab

		                               ==>  The Official - We Are Still Here  <==

						      Tabbed by .:: assasin_cat ::.

[intro]

C,G,Am,Em,F,C,F,G


[ a LIttLE iNTrO]

e|-8--8--10---10--8--8-10--10--8--8--10--10--12--10--8--10--8---|
B|--8-------8------8-----8-------8-----8----------------------8-|
G|--------------------------------------------------------------|
D|--------------------------------------------------------------|
A|--------------------------------------------------------------|
E|--------------------------------------------------------------|

[verse]

e|----------------------------------------------------------------------------------------------------------------|
B|----------------------------------------------------------------------------------------------------------------|
G|-5-5-5-5-5-5-5-5-5-5-5---------------------------------------------------------------------------5-5-5-5-5-5-5--|
D|-5-5-5-5-5-5-5-5-5-5-5--5-5-5-5-5-5-5-5-5-7-7-7-7-7-7-7-7-7--2-2-2-2-2-2-2-2--3-3-3-3-3-3-3-3-3--5-5-5-5-5-5-5--|
A|-3-3-3-3-3-3-3-3-3-3-3--5-5-5-5-5-5-5-5-5-7-7-7-7-7-7-7-7-7--2-2-2-2-2-2-2-2--3-3-3-3-3-3-3-3-3--3-3-3-3-3-3-3--|
E|------------------------3-3-3-3-3-3-3-3-3-5-5-5-5-5-5-5-5-5--0-0-0-0-0-0-0-0--1-1-1-1-1-1-1-1-1-----------------|
[ Tab from: http://www.guitaretab.com/m/misc-unsigned-bands/89120.html ]
e|----------------------------------------------------------------------------------------------------------------|
B|----------------------------------------------------------------------------------------------------------------|
G|----------------------------------------------------------------------------------------------------------------|
D|-3-3-3-3-3-3-3--5-5-5-5-5-5-5-5---------------------------------------------------------------------------------|
A|-3-3-3-3-3-3-3--5-5-5-5-5-5-5-5---------------------------------------------------------------------------------|
E|-1-1-1-1-1-1-1--3-3-3-3-3-3-3-3---------------------------------------------------------------------------------|


[BRIDGE]
-
e|-------------------------------------------------------------------------------------------------------------------------|
B|-------------------------------------------------------------------------------------------------------------------------|
G|----------------5-5-5-5-5-5-5-5-----------------------------------------------5-5-5-5-5-5-5------------------------------|
D|-3-3-3-3-3-3-3--5-5-5-5-5-5-5-5--5-5-5-5-5-5-5-5-5-5-5-5-5-5--3-3-3-3-3-3-3-3-5-5-5-5-5-5-5-5-5-5-5-5-5-5-5-5-5-5-5-5----|
A|-3-3-3-3-3-3-3--3-3-3-3-3-3-3-3--5-5-5-5-5-5-5-5-5-5-5-5-5-5--3-3-3-3-3-3-3-3-3-3-3-3-3-3-3-5-5-5-5-5-5-5-5-5-5-5-5-5----|
E|-1-1-1-1-1-1-1-------------------3-3-3-3-3-3-3-3-3-3-3-3-3-3--1-1-1-1-1-1-1-1---------------3-3-3-3-3-3-3-3-3-3-3-3-3----|


[chorus]

same as verse

* there might be some 'major' problem. please let me know. Gritz!

.:: xsqade@gmail.com ::.
Related for The Official - We Are Still Here tab
Advertisement will be closed in 10 seconds