Song name
# A B C D E F G H I J K L M N O P Q R S T U V W X Y Z

Misc Unsigned Bands - Minimum Wage - Theres No Law tab

INTRO 

E---------------------------------------------------G
B---------------------------------------------------U
G------------------5-5-5-5-5-5-5-5--7-7-7-7-7-7-7-7-I
D-7-7-7-7-7-7-7-7--5-5-5-5-5-5-5-5--7-7-7-7-7-7-7-7-T
A-7-7-7-7-7-7-7-7--3-3-3-3-3-3-3-3--5-5-5-5-5-5-5-5-A
E-5-5-5-5-5-5-5-5-----------------------------------R

G---------------------------------------------------B
D---------------------------------------------------A
A------------------3-3-3-3-3-3-3-3--5-5-5-5-5-5-5-5-S
E-5-5-5-5-5-5-5-5-----------------------------------S

FILL

E-------------------------------------------G
B-------------------------------------------U
G-7--7-7--6--6-6--4--4-4--------------------I
D-7--7-7--6--6-6--4--4-4--5--5-5------------T
A-5--5-5--4--4-4--2--2-2--5--5-5------------A
E-------------------------3--3-3------------R

G----------------------------------B
D----------------------------------A
A-5--5-5--4--4-4--2--2-2-----------S
E------------------------3--3-3----S

MUTE GUITAR WHEN VOCALS START :
VERSE

E---------------------------------------------------G
B---------------------------------------------------U
G------------------5-5-5-5-5-5-5-5--7-7-7-7-7-7-7-7-I
D-7-7-7-7-7-7-7-7--5-5-5-5-5-5-5-5--7-7-7-7-7-7-7-7-T
A-7-7-7-7-7-7-7-7--3-3-3-3-3-3-3-3--5-5-5-5-5-5-5-5-A
E-5-5-5-5-5-5-5-5-----------------------------------R

G---------------------------------------------------B
D---------------------------------------------------A
A------------------3-3-3-3-3-3-3-3--5-5-5-5-5-5-5-5-S
E-5-5-5-5-5-5-5-5-----------------------------------S

FILL

E-------------------------------------------G
B-------------------------------------------U
G-7--7-7--6--6-6--4--4-4--------------------I
D-7--7-7--6--6-6--4--4-4--5--5-5------------T
A-5--5-5--4--4-4--2--2-2--5--5-5------------A
E-------------------------3--3-3------------R

G----------------------------------B
D----------------------------------A
A-5--5-5--4--4-4--2--2-2-----------S
E------------------------3--3-3----S

CHORUS : GUITAR MUTED

E--------------------------------------G
B--------------------------------------U
G--------------------------------------I
D-7-7-7-7-7-7-7-7-7--5-5-5-5--3-3-3-3--T
A-7-7-7-7-7-7-7-7-7--5-5-5-5--3-3-3-3--A
E-5-5-5-5-5-5-5-5-5--3-3-3-3--1-1-1-1--R
  
THERES NO LAW FOR THE RICH OR POOR

G-------------------------------------B
D-------------------------------------A
A-------------------------------------S
E-5-5-5-5-5-5-5-5-5--3-3-3-3--1-1-1-1-S


OUTRO

E---------------------------------------------------------G
B---------------------------------------------------------U
G-7--7-7--6--6-6--4--4-4----------7--7-7--6--6-6--4-4-4-4-I
D-7--7-7--6--6-6--4--4-4--5--5-5--7--7-7--6--6-6--4-4-4-4-T
A-5--5-5--4--4-4--2--2-2--5--5-5--5--5-5--4--4-4--2-2-2-2-A
E-------------------------3--3-3--------------------------R

G--------------------------------------------------------B
D--------------------------------------------------------A
A-5--5-5--4--4-4--2--2-2---------5--5-5--4--4-4--2-2-2-2-S
E------------------------3--3-3--------------------------S
Tap to rate this tab
 
# A B C D E F G H I J K L M N O P Q R S T U V W X Y Z