Song name
# A B C D E F G H I J K L M N O P Q R S T U V W X Y Z

Misc Unsigned Bands - Operation World War - Onceler tab

/=Slide To
h=Hammer On
p=Pull Off

E-00000-00--3--5-6-5-----00000-00--3--5-6-|
B-00000-00--3--5-6-5-----00000-00--3--5-6-|
G-----------------------------------------|
D-----------------------------------------|x2
A-----------------------------------------|
E-----------------------------------------|

E-----------------------------------------|
B-----------------------------------------|
G-----------------------------------------|
D-----------------------------------------|x4
A-00000-00--3--5-6-5-----00000-00--3--5-6-|
E-----------------------------------------|

E------------------------------------------------------------------|
B------------------------------------------------------------------|
G---------------------------------------------------------13-13-13-|
D----------------------------------------------------0000----------|x4
A-------------0000-------------0000-------------0000---------------|
E-11-11-11-11------11-11-11-11------11-11-11-11--------------------|

E----------------------------------------------|
B----------------------------------------------|
G-------------------------------------------12-|
D---0-13---13-13-13-13-13-12-12-12-11-11-11----|x3
A----------------------------------------------|
E----------------------------------------------|

E-----------------------------------------|
B-----------------------------------------|
G-----------------------------------------|
D-0-13---13-13-13-14-14-14-15-15-15--15/3-|
A-----------------------------------------|
E-----------------------------------------|

E------------------------------------------------------------------|
B------------------------------------------------------------------|
G---------------------------------------------------------13-13-13-|
D----------------------------------------------------0000----------|x4
A-------------0000-------------0000-------------0000---------------|
E-11-11-11-11------11-11-11-11------11-11-11-11--------------------|

E----------------------------------------------|
B----------------------------------------------|
G-------------------------------------------12-|
D---0-13---13-13-13-13-13-12-12-12-11-11-11----|x3
A----------------------------------------------|
E----------------------------------------------|

E-----------------------------------------|
B-----------------------------------------|
G-----------------------------------------|
D-0-13---13-13-13-14-14-14-15-15-15--15/3-|
A-----------------------------------------|
E-----------------------------------------|

E-0-7-5-0-5-3-0-5-3-5-3-4-3--|
B----------------------------|
G----------------------------|
D----------------------------|x2
A----------------------------|
E----------------------------|

E--00000--0--15-12-15-17-19-17-19-17-15-----|
B-------------------------------------------|
G-------------------------------------------|
D-------------------------------------------|
A-------------------------------------------|
E-----------------------------------------0-|

E-9h10p9----------9h10p9-----------------5-|
B---------9h10p9----------7h8p7----------5-|
G--------------------------------5h6p5---5-|
D------------------------------------------|
A------------------------------------------|
E------------------------------------------|

E-11-11-11--12-12-12--11-----11-11-11-10-|
B-11-11-11--12-12-12--11-----11-11-11-10-|
G-11-11-11--12-12-12--11-----11-11-11-10-|
D----------------------------------------|
A----------------------------------------|
E----------------------------------------|
Tap to rate this tab
 
# A B C D E F G H I J K L M N O P Q R S T U V W X Y Z