Song name
# A B C D E F G H I J K L M N O P Q R S T U V W X Y Z

Misc Unsigned Bands - The Inconvenient Fish Band - The Inconvenience Of Fish tab

Intro part 1 
E|--0000000-0000000-0000000-0000000-0000000-0000000-0000000-0000000-|
B|------------------------------------------------------------------|
G|------------------------------------------------------------------|
D|------------------------------------------------------------------|
A|------------------------------------------------------------------|
E|-0---/---1---/---3--/----5--/----7--/----8--/----10-/----12-------|

E|--0000000-0000000-0000000-0000000-0000000-0000000-0000000-0000000--|
B|-------------------------------------------------------------------|
G|-------------------------------------------------------------------|
D|-------------------------------------------------------------------|
A|-----------------------------------------------------------------2-|
E|-12--\---10---\--8---\----7--\----5-\-----3--\----1--\----0------0-|

Intro part 2 / Verse
E|-----------------------------|-----------------------------|-----------------------------|
B|-----------------------------|-----------------------------|-----------------------------|
G|-----------------------------|-----------------------------|-----------------------------|
D|-2-------2-------2-------2-0-|-2-------2-------2-------2-3-|-2-------2-------2-------2-0-|
A|-2-------2-------2-------2-0-|-2-------2-------2-------2-3-|-2-------2-------2-------2-0-|
E|---0-0-0---0-0-0---0-0-0-----|---0-0-0---0-0-0---0-0-0-----|---0-0-0---0-0-0---0-0-0-----|
                             _1   _3                                _2    vx4     _4
E|---------------------------------|---------------------------------|-------------|
B|---------------------------------|---------------------------------|-------------|
G|---------------------------------|---------------------------------|-------------|
D|---------------------------------|---------------------------------|-------------|
A|---------------------------------|---------------------------------|-------------|
E|-0-1-3-0-1-3-0-1-0-1-3-0-1-3-0-1-|-3-1-0-3-1-0-3-1-3-1-0-3-1-0-3-1-|-0h1h3-0h1h3-|

Chorus
E|-----------------------------|-----------------------------|
B|-----------------------------|-----------------------------|
G|-----------------------------|-----------------------------|
D|-----------------------------|-----------------------------|  Play all 4 times
A|-7-7-7-7-7-7-7-7-7-7-7-7-7/8-|-8-8-8-8-8-8-8-8-8-8-8-8-8\5-|
E|-7-------7-------7-------7/8-|-8-------8-------8-------8\5-|

E|-----------------------------|---------------------------------|
B|-----------------------------|---------------------------------|
G|-----------------------------|---------------------------------|
D|-----------------------------|---------------------------------|
A|-5-5-5-5-5-5-5-5-5-5-5-5-5/7-|-7-7-7-7-7-7-7-7-7-7-7-7-7/8\5/7-|
E|-5-------5-------5-------5/7-|-7-------7-------7-------7/8\5/7-|

Play everything above again except for intro part 1 then go to

Solo
E|---------------------------------------------------------------------12h13h15b17r15p13p12---|
B|-------------------------------------------------------------12h13h15--------------------15-|
G|-----------------------------------------12h14h16b18r16p14p12-------------------------------|
D|-----------------12h14h15--------12h14h15---------------------------------------------------|
A|---------12h14h15--------12h14h15-----------------------------------------------------------|
E|-12h13h15-----------------------------------------------------------------------------------|

E|-12h13h15-15p13p12-----------------------------------------------------------------------------------|
B|-------------------15-12h13h15-15p13p12--------------------------------------------------------------|
G|----------------------------------------16-12h14h16-16p14p12-----------------------------------------|
D|------------------------------------------------------------15-12h14h15-15p14p12---------------------|
A|--------------------------------------------------------------------------------15-12h14h15-15p14p12-|
E|-----------------------------------------------------------------------------------------------------|

E|--------------------------------------------12h13h15-12h15p12h13----------------------------------|
B|------------------------------------12h13h15--------------------12h15p12h13-----------------------|
G|----------------------------12h14h16---------------------------------------12h16p12h14------------|
D|--------------------12h14h15----------------------------------------------------------12h15p12h14-|
A|------------12h14h15------------------------------------------------------------------------------|
E|-15-12h13h15--------------------------------------------------------------------------------------|

E|--------------------------------------------------------------------------|
B|--------------------------------------------------------------------------|
G|----------------------------------------------12---14---16b18-------------|
D|-------------------------------12---14---15-------------------------------|
A|----------------12---14---15----------------------------------------------|
E|-12---13---15-------------------------------------------------12----------|

Repeat Verse and Chorus End
Tap to rate this tab
# A B C D E F G H I J K L M N O P Q R S T U V W X Y Z