Song name
# A B C D E F G H I J K L M N O P Q R S T U V W X Y Z

Misc Unsigned Bands - Guttural Evisceration - Excrutiating Justification tab

---
                            Excruciating Justification- guttural evisceration
-------------------------------------------------------------------------------
Tabbed by:leadshred
Email:

Tuning: dropped c
                  verse                                    repeat 4 x
d|---------------------------------------------------------------------------|
a|---------------------------------------------------------------------------|
f|---------------------------------------------------------------------------|
c|-------------7870----------------------------7870--------------------------|
g|-----7870------------7870------------7870------------7870-----7------------|
c|-000------00------00------75750---000-----00------00------000-7------------|
     pm the open notes               breakdown
e|---------------------------------------------------------------------------|
B|---------------------------------------------------------------------------|
G|--------------------------------------5-ph---------------------------------|
D|---------------------------------------------------------------------------|
A|--00-0-0-0--000--00--00--0-0-0-000-----------------------------------------|
E|--00-0-0-0--000--00--00--0-0-0-000-----------------------------------------|
               bridge
e|---------------------------------------------------------------------------|
B|---------------------------------------------------------------------------|
G|---------------------------------------------------------------------------|
D|---------------------------------------------------------------------------|
A|--------9-10-9--7-8-7--5-6-5--3-4-3----------------------------------------|
E|---------------------------------------0000000000--------------------------|
            chorus
e|---------------------------------------------------------------------------|
B|---------------------------------------------------------------------------|
G|---------------------------------------------------------------------------|
D|---------------------------------------------------------------------------|
A|----7----8--7------76--------7----8--7------------8-10---------------------|
E|-55---55--5---5555----76--55--55---5---5555--8-10--------------------------|
           breakdown
e|--------------------------------------------------------------------------|
B|--------------------------------------------------------------------------|
G|--------------------------------------------------------------------------|
D|--------------------------------------------------------------------------|
A|---00------0----000---3--------2------------------------------------------|
E|---00------0----000---3--------2------------------------------------------|
Tap to rate this tab
 
# A B C D E F G H I J K L M N O P Q R S T U V W X Y Z