Song name
# A B C D E F G H I J K L M N O P Q R S T U V W X Y Z

Misc Unsigned Bands - With Blood - Fist Fight Or Fuck Off tab

                             Group vocals: You said!      You'd be there!
E|--------------|---------------|--------------|--------------|
B|--------------|---------------|--------------|--------------|
G|--------------|---------------|--------------|--------------|
D|00-00-00-00---|00-00-00-00-12s|00-00-00-00---|00-00-00-00---|
A|00-00-00-00---|00-00-00-00-12s|00-00-00-00---|00-00-00-00---|
D|00-00-00-00---|00-00-00-00-12s|00-00-00-00---|00-00-00-00---|

           Till the end!   Do you regret it now
E|--------------|-----------------|
B|--------------|-----------------|
G|--------------|-----------------|
D|00-00-00-00---|00-00-00-00---12s|
A|00-00-00-00---|00-00-00-00---12s|
D|00-00-00-00---|00-00-00-00---12s|


E|-----------------------|
B|-----------------------|
G|-----------------------|
D|00-00-00---------------|X4
A|00-00-00---------------|
D|00-00-00--3-2-3-5-2-3-2|

E|--------------------|--------------------|
B|--------------------|--------------------|
G|--------------------|--------------------|
D|00-00-0000-00---00--|00-00-0000-00---00--|X2
A|00-00-0000-00-7-00-8|00-00-0000-00-8-00-7|
D|00-00-0000-00---00--|00-00-0000-00---00--|


E|-----------------------|-----------------------|
B|-----------------------|-----------------------|
G|-----------------------|-----------------------|
D|0----------------------|0----------------------|X2
A|0----------------------|0----------------------|
D|0-3-0-2h3-0-5-3-5-7-5-3|0-3-0-2h3-0-5-3-5-7-5-3|


E|----------------------------|
B|----------------------------|
G|----------------------------|
D|0---------------------------|x4
A|0--8-5-7-8-5-10-8-10-12-10-8|
D|0---------------------------|


E|------------------------|-----------------------|
B|------------------------|-----------------------|
G|------------------------|-----------------------|
D|0000-000----------------|0000-000---------------|X2
A|0000-000--8-7-8-10-7-8-7|0000-000---------------|
D|0000-000----------------|0000-000--3-2-3-5-2-3-2|


E|------------|
B|------------|
G|------------|
D|0000-000----|X4
A|0000-000----|
D|0000-000----|


E|------------------------|
B|------------------------|
G|------------------------|
D|0000-000----------------|X4
A|0000-000--8-7-8-10-7-8-7|
D|0000-000----------------|


E|----------------|
B|----------------|
G|----------------|
D|00-00-00-00-0000|X4
A|00-00-00-00-0000|
D|00-00-00-00-0000|

SO HEARS YOUR FUCKIN' FAREWELL!

E|----------------|
B|----------------|
G|----------------|
D|00-00-00-00-0000|X4
A|00-00-00-00-0000|
D|00-00-00-00-0000|


E|-----------------------------------------|
B|-----------------------------------------|
G|-----------------------------------------|
D|------------------5-8-7-8-10-8-10-12-10-8|     
A|5-8-7-8-10-8-7-8-8-----------------------|
D|-----------------------------------------|

LET LAST NOTE RING
E|-----------|-----------|
B|-----------|-----------|
G|-----------|-----------|
D|00-00-00---|00-00-00---|X2
A|00-00-00---|00-00-00---|
D|00-00-00---|00-00-00---|

Tab by Lewckas, at violet_tragedy69@hotmail.com
Tap to rate this tab
# A B C D E F G H I J K L M N O P Q R S T U V W X Y Z