Song name
# A B C D E F G H I J K L M N O P Q R S T U V W X Y Z

Misc Unsigned Bands - X Phrasing By Devon - Snakes Gemini tab

E |-----------------------------------------------------------------|
B |-----------------------------------------------------------------|
G |---------9------10------9----------------------------------------|
D |-10-9-10---10-9----9-10---10-9---------9------10------9----------|
A |-------------------------------10-9-10---10-9----9-10---10-9-----|
E |-----------------------------------------------------------------|

E |-------------------------------------------------------------------------|
B |-------------------------------------------------------------------------|
G |-------------------------------------------------------------------------|
D |----------10-------12-------10-------------------------------------------|
A |-12-10-12----12-10----10-12----12-10----------10-------12-------10-------|
E |-------------------------------------12-10-12----12-10----10-12----12-10-|

E |-----------------------------------------------------------------|
B |-----------------------------------------------------------------|
G |-----------------------------------------------------------------|
D |-------7-----8-----7---------------------------------------------|
A |-8-7-8---8-7---7-8---8-7-------7-----8-----7---------------------|
E |-------------------------8-7-8---8-7---7-8---8-7-----------------|

E |-----------------------------------------------------------------|
B |-----------------------------------------------------------------|
G |-----------------------------------------------------------------|
D |-------7-----8-----7-------------9------10------9----9-10--------|
A |-8-7-8---8-7---7-8---8-7-10-9-10---10-9----9-10---10-------------|
E |-----------------------------------------------------------------|
Tap to rate this tab
 
# A B C D E F G H I J K L M N O P Q R S T U V W X Y Z