Song name
# A B C D E F G H I J K L M N O P Q R S T U V W X Y Z

Misc Unsigned Bands - Apocasition - Invisible Warrior tab

ApocasitioN  -  invisible  warrior


my  tuning  is  weird.  think  slayer  (  dropped  down  half  a  step  ),  but  in  drop  d  (C#).


tabbed  this  out  for  my  buddy  who  plays  bass,  thought  i'd  share

this  song  should  be  just  under  4  mins.  when  played  right,  this  is  for  
 and  grins  only,  dont  steal  my  track,  or  i  may  have  to  kill  you.

any questions/comments/usuage,e-mail-me: jdawg5tl@yahoo.com      

~  hold

*  pinch  harmonic

m  mute  note  after  it  rings


Intro:  (  bass  and  guitar  are  same  )


~  hold  

*  pinch  harmonic

m  mute  note  after  it  rings    


Intro:  (  bass  and  guitar  are  same  )   


--------------------------------
--------------------------------  x4  
-11-11h12~----------------------
----------12--------------------
--------------------------------
--------------------------------



--------------------------------
--------------------------------
-9/8----------------------------
-9/8----------------------------
--------------------------------
--------------------------------



--------------------------------
--------------------------------  x4  
-11-11h12~----------------------
----------12*-------------------
--------------------------------
--------------------------------


--------------------------------
--------------------------------
-7/6----------------------------
-7/6----------------------------
--------------------------------
--------------------------------  

repeat  once  more  (  no  pause  )  



hold  7/6  slide  on  second  time  through  and  push  /  pull  on  tremolo  
  



Go  into  this  Pre  -  Verse  Thing  (  bass  fills  only  on  9/8,  7/6  slides  )   



  
----------------------------------------------
----------------------------------------------  
-11-11h12~-----11~11h12~----------11~11h12----
----------12~-----------12m(pause)--------12~-
----------------------------------------------
----------------------------------------------


--------------------------------
--------------------------------
-9/8----------------------------
-9/8----------------------------
--------------------------------
--------------------------------  

  
----------------------------------------------
----------------------------------------------  
-11-11h12~-----11~11h12~----------11~11h12----
----------12~-----------12m(pause)--------12~-
----------------------------------------------
----------------------------------------------


--------------------------------
--------------------------------
-7/6----------------------------
-7/6----------------------------
--------------------------------
--------------------------------  

repeat  pre  verse  thing  once  more  


Rhythym  1  



		     |this
		      part is  like  hammer  on  but  you
		      pluck  both  notes 
 		    |     |
------------------------------------------------
------------------------------------------------
------------------------------------------------
-3-3-3-3-3-3-3-3--7~-5-7-5--3-3-3-3-3-3-3-3--7/5
---------------------------------------------7/5
------------------------------------------------  

                    |     |  
------------------------------------------------
------------------------------------------------
------------------------------------------------
-3-3-3-3-3-3-3-3--7~-5-7-5--3-3-3-3-3-3-3-3--5/4
---------------------------------------------5/4
------------------------------------------------ 



go  through  rhytyhm  1  once  more  




Verse  1  



-----------------------------------------------------------
-----------------------------------------------------------
-----------------------------------------------------------
-5-5-5-5-5-5-5-5-\-3-3-3-/-6-6-6-6-6-6-6-6-\-1-1--1-p0-----
-7-7-7-7-7-7-7-7-\-5-5-5-/-8-8-8-8-8-8-8-8-\-3-3--3-p0-----
-----------------------------------------------------------



-----------------------------------------------------------
-----------------------------------------------------------
-----------------------------------------------------------  
-5-5-5-5-5-5-5-5-\-3-3-3-/-6-6-6-6-6-6-6-6-\--------0------    
-7-7-7-7-7-7-7-7-\-5-5-5-/-8-8-8-8-8-8-8-8-\-3-3--3-0------
-----------------------------------------------------------  

repeat  verse  1  once  more  



Verse  2  

--------------------------------------------------
--------------------------------------------------
-3-3-3-3-3-3-3-3\-5-5-5-/-3-3-3-3-3-3-3-3\-7~-/6~-
-5-5-5-5-5-5-5-5\-7-7-7-/-5-5-5-5-5-5-5-5\-9~-/8~-
--------------------------------------------------
--------------------------------------------------  



--------------------------------------------------
--------------------------------------------------
-3-3-3-3-3-3-3-3\-5-5-5-/-3-3-3-3-3-3-3-3\-7~-/5~-
-5-5-5-5-5-5-5-5\-7-7-7-/-5-5-5-5-5-5-5-5\-9~-/7~-
--------------------------------------------------
--------------------------------------------------  

repeat  verse  2  once  more  



Rhythym  2  

---------------------------------------------------
---------------------------------------------------
---------------------------7-7-7-7-7-7-7-7-7-7--7/6  x  4  
-----------------6-6-7-6-6-7-7-7-7-7-7-7-7-7-7--7/6
-5-5-5-5-5-5-5-5-----------------------------------  
---------------------------------------------------
^gallop picking  


verse  2  (  2  times  through  )  



rhythym  2  (  x  4  )  



Lead  1  


-----------------------------------------------------------------
-----------------------------------------------------------------
---------------------------------10-10-10-10-10-10-10-10-10~10~\9  x  2  
----------------------9-9/10\9-9-10-10-10-10-10-10-10-10-10~10~\9
-7-7-7-7-7-7-7-7-7-7---------------------------------------------
-----------------------------------------------------------------


--------------------------------------------------------
--------------------------------------------------------
-------------------------------7-7-7-7-7-7-7-7-7-7~--7/6
---------------------7-7/8\7-7-7-7-7-7-7-7-7-7-7-7~--7/6
-5-5-5-5-5-5-5-5-5-5------------------------------------
--------------------------------------------------------



---------------------------------------------------------
---------------------------------------------------------
--------------------------------9-9-9-9-9-9-9-9-9-9~--9/8
---------------------9-9/10\9-9-9-9-9-9-9-9-9-9-9-9~--9/8
-7-7-7-7-7-7-7-7-7-7-------------------------------------
---------------------------------------------------------



verse  1  (  2  times  through  ) 



Outro  
 
 		    |     |
------------------------------------------------
------------------------------------------------
------------------------------------------------
-3-3-3-3-3-3-3-3--7~-5-7-5--3-3-3-3-3-3-3-3--7/5
-3-3-3-3-3-3-3-3--7~-5-7-5--3-3-3-3-3-3-3-3--7/5
------------------------------------------------  


                    |     |  
------------------------------------------------
------------------------------------------------
------------------------------------------------
-3-3-3-3-3-3-3-3--7~-5-7-5--3-3-3-3-3-3-3-3--5/4
-3-3-3-3-3-3-3-3--7~-5-7-5--3-3-3-3-3-3-3-3--5/4
------------------------------------------------


		    |     |
------------------------------------------------
------------------------------------------------
------------------------------------------------
-3-3-3-3-3-3-3-3--7~-5-7-5--3-3-3-3-3-3-3-3--7/5
-3-3-3-3-3-3-3-3--7~-5-7-5--3-3-3-3-3-3-3-3--7/5
------------------------------------------------  
                   

		    |     |
-------------------------------------------------------
-------------------------------------------------------
-------------------------------------------------------
-3-3-3-3-3-3-3-3--7~-5-7-5--3-3-3-3-3-3-3-3--7~--3~--0~
-3-3-3-3-3-3-3-3--7~-5-7-5--3-3-3-3-3-3-3-3--7~--3~--2~
-------------------------------------------------------
Tap to rate this tab
# A B C D E F G H I J K L M N O P Q R S T U V W X Y Z