Song name
# A B C D E F G H I J K L M N O P Q R S T U V W X Y Z

Misc Unsigned Bands - The Rooks - A Night Out On The Green tab

(A Night Out) On The Green
The Rooks - 2007

Chorus Tab

1.                             2.
|------------------------------|------------------------------|
|------------------------------|------------------------------|
|------------------------------|------------------------------|
|-5h6p5-6--6--6p5--6-----------|-5h6p5-6--6--6-10--6----------|
|------------------------------|------------------------------|
|------------------------------|------------------------------|

1. [Yes it's a night out on the green...]
2. [Oh all the places that we've been...]

3.                             4.
|------------------------------|------------------------------|------------|
|------------------------------|------------------------------|------------|
|------------------------------|------------------------------|------------|
|-5h6p5-6--6--6p5--6-----------|------------------------------|------------|
|---------------------------2--|-----------------------------2|------------|
|-------------------------4---4|4------------------------4444-44-----------|

3. [Yes it's a night out on the green, and we're all]
4. [fucked... So we keep pushing our luck]

X 2

Replace: [Oh all the places that we've been...]
With: [And we've been making quite a scene...]
Tap to rate this tab
# A B C D E F G H I J K L M N O P Q R S T U V W X Y Z