Song name
# A B C D E F G H I J K L M N O P Q R S T U V W X Y Z

Misc Unsigned Bands - Red Conflict - Memory tab

Intro/Verse:
e------------------------------------------------------------------|
b------------------------------------------------------------------|
g------------------------------------------------------------------|
d---0--------5----------2--------5---------------------------------| X2
a---0--X4----5---X4-----2-X4-----5--X4-----------------------------|
d---0--------5----------2--------5---------------------------------|

Pre-Chorus:

e----------------------------------------------------------------|
b----------------------------------------------------------------|
g----------------------------------------------------------------|
d----2----------5--------0--------7------------------------------|  X2
a----2---X4-----5--X4----0--X4----7--X4--------------------------|
d----2----------5--------0--------7------------------------------|

e--------------------------------------------------------------------|
b--------------------------------------------------------------------|
g--------------------------------------------------------------------|
d---2-2---2-2------5~~~----------------------------------------------|
a---2-2---2-2------5~~~----------------------------------------------|
d---2-2---2-2------5~~~----------------------------------------------|

Chorus:

e------------------------------------------------------------------|
b------------------------------------------------------------------|
g------------------------------------------------------------------|
d---0--------5---------7---------5---------------------------------| X2
a---0--X4----5--X4-----7--X4-----5--X4-----------------------------|
d---0--------5---------7---------5---------------------------------|

e--------------------------------------------------------------------|
b--------------------------------------------------------------------|
g--------------------------------------------------------------------|
d---2-2---2-2------5~~~----------------------------------------------|
a---2-2---2-2------5~~~----------------------------------------------|
d---2-2---2-2------5~~~----------------------------------------------|


Intro: X2
Verse: X4
Prechorus:X2
Chorus:X2
Verse:X4
Prechorus:X2
Chorus:X2
Chorus:X2
Intro:X2
Tap to rate this tab
# A B C D E F G H I J K L M N O P Q R S T U V W X Y Z