Song name
# A B C D E F G H I J K L M N O P Q R S T U V W X Y Z

Misc Unsigned Bands - The Wernt - Number One Buzz tab

-------------------------------------------------------------------------------
			     Number one buzz- The Wernt
Tabbed by:Angel of Death3.
Email:ianrmurray@ntlworld.com

Tuning:E A D G B e

| /  slide up
| \  slide down
| h  hammer-on
| p  pull-off
| ~  vibrato
| +  harmonic
| x  Mute note

Arrangement
Intro  x2
Verse  x4
Chorus x6
Intro  x2
Verse  x4
Chorus x6
Intro  x2
Verse  x4
Chorus x6
Last chord


   Intro
e|---------------------------------------------------------------------------|
B|---------------------------------------------------------------------------|
G|---------------------------------------------------------------------------|
D|---------------------------------------------------------------------------|
A|--7-7-7-7---10-10-10-10-5-5-5-5--------------------------------------------|
E|--5-5-5-5---8--8--8--8--3-3-3-3--------------------------------------------|


   Verse
e|-----------------------------|
B|-----------------------------|
G|-----------------------------|
D|-----------------------------|
A|--7--------------------10-5--|
E|--5-----\ /\ /\ /\ /---8--3--|           (scratch)


   Chorus
e|---------------------------------------------------------------------------|
B|---------------------------------------------------------------------------|
G|---------------------------------------------------------------------------|
D|---------------------------------------------------------------------------|
A|-------5-7-----------------------------------------------------------------|
E|-0-0-0-3-5-----------------------------------------------------------------|


   last Chord
e|---5----------------------------------------------------------------------|
B|---5----------------------------------------------------------------------|
G|---6----------------------------------------------------------------------|
D|---7----------------------------------------------------------------------|
A|---7----------------------------------------------------------------------|
E|---5----------------------------------------------------------------------|


And thats it
Tap to rate this tab
 
# A B C D E F G H I J K L M N O P Q R S T U V W X Y Z