Song name
# A B C D E F G H I J K L M N O P Q R S T U V W X Y Z

Misc Unsigned Bands - Infear - Stars Of War tab

-------------------------------------------------------------------------------
			     STARS OF WAR - InFear
-------------------------------------------------------------------------------
Tabbed by: harley cooper - InFear guitar
Email:

Tuning:standard homies

 Intro
e|---------------------------------------------------------------------------|
B|---------------------------------------------------------------------------|
G|--------------------------5--x16-------------------------------------------|
D|--7--x16--3--x16--5--x16--5------------------------------------------------|
A|--7-------3-------5-------3------------------------------------------------|
E|--5-------1-------3--------------------------------------------------------|

   Verse 1 (played all palm muted)

e|-----------------------------------------------------------------------------|
B|-----------------------------------------------------------------------------|
G|--------------------------5--x16----|----------------------------------------|
D|--7--x16--3--x16--5--x16--5---------|-x2-------------------------------------|
A|--7-------3-------5-------3---------|----------------------------------------|
E|--5-------1-------3-----------------|----------------------------------------|

    Chorus
e|-----------------------------------------------------------------------------|
B|-----------------------------------------------------------------------------|
G|-----------------------------------------------------------------------------|
D|--7-7-7--5-5-5--7-7-7--3-3-3-3-----------------------------------------------|
A|--7-7-7--5-5-5--7-7-7--3-3-3-3--x2-------------------------------------------|
E|--5-5-5--3-3-3--5-5-5--1-1-1-1-----------------------------------------------|

Verse 2 (played all palm muted)

e|-----------------------------------------------------------------------------|
B|-----------------------------------------------------------------------------|
G|--------------------------5--x16----|----------------------------------------|
D|--7--x16--3--x16--5--x16--5---------|-x2-------------------------------------|
A|--7-------3-------5-------3---------|----------------------------------------|
E|--5-------1-------3-----------------|----------------------------------------|

     Chorus
e|-----------------------------------------------------------------------------|
B|-----------------------------------------------------------------------------|
G|-----------------------------------------------------------------------------|
D|--7-7-7--5-5-5--7-7-7--3-3-3-3-----------------------------------------------|
A|--7-7-7--5-5-5--7-7-7--3-3-3-3--x2-------------------------------------------|
E|--5-5-5--3-3-3--5-5-5--1-1-1-1-----------------------------------------------|

   solo
e|---------------------------------------------------------------------------|
B|---------------------------------------------------------------------------|
G|---------------11-12-14--16(bd)--16(bd)--16(bd)--12------------------------|
D|--12-14-14-----------------------------------------14--12------------------|
A|---------------------------------------------------------------------------|
E|---------------------------------------------------------------------------|

e|---------------------------------------------------------------------------|
B|---------------------------------------------------------------------------|
G|------12--14~---------16(bd)--14-12----------------------------------------|
D|--12--------------------------------12~------------------------------------|
A|---------------------------------------------------------------------------|
E|---------------------------------------------------------------------------|

Chorus
e|-----------------------------------------------------------------------------|
B|-----------------------------------------------------------------------------|
G|-----------------------------------------------------------------------------|
D|--7-7-7--5-5-5--7-7-7--3-3-3-3-----------------------------------------------|
A|--7-7-7--5-5-5--7-7-7--3-3-3-3--x2-------------------------------------------|
E|--5-5-5--3-3-3--5-5-5--1-1-1-1-----------------------------------------------|

    Outro
e|---------------------------------------------------------------------------|
B|---------------------------------------------------------------------------|
G|-----------5---------------------------------------------------------------|
D|--7--3--5--5---------------------------------------------------------------|
A|--7--3--5--3---------------------------------------------------------------|
E|--5--1--3------------------------------------------------------------------|


| ~  vibrato
|(bd) bend
===============================================================================
Tap to rate this tab
# A B C D E F G H I J K L M N O P Q R S T U V W X Y Z