Song name
# A B C D E F G H I J K L M N O P Q R S T U V W X Y Z

Misc Unsigned Bands - Rockabunny - North To South tab

Help us improve GuitareTab! Take a short survey!
This is my first tab so don't ridicule please. This is the correct tab I think.

P = Pull Off

E-2-2-2-2-0-0-0-0-0-0-0-0-0-0-------|
B-3-3-3-3-0-0-1-1-1-1-0-1-1-1-------|
G-2-2-2-2-0-0-0-0-0-0-0-0-0-0-------|      X2
D-0-0-0-0-2-2-2-2-2-2-2-2-2-2-------|
A-0-0-0-0-2-2-2-2-2-2-2-2-2-2-------|
E-0-0-0-0---------------------------|

E-------------------------|
B-------------------------|
G----0----0------0---0----|
D---2----2------2-2-2-2-2-|
A--2--2-2--2-2-2---2------|
E-2----2------2-----------|

E---------------------------|
B--0---0--------2-2---------|
G---0---0-----------2-2-----|
D-0---0---0-2-2-------------|
A----0---0--------------2-2-|
E---------------------------|

E-3-3-2-2-----------------------|
B-0-0-3-3---0-------0-----------|
G-0-0-2-2-----0-------0---------|      X2
D-0-0-0-0-0-------0-------------|
A-2-2-0-0-------0-------0-------|
E-3-3-0-0-----------------------|

E---------------------------------------------|
B---------------------------------------------|
G---------------------------------------------|      X3
D---------------------------------------------|
A-6-4-2-4-4-4-6-6-6-6-4-4-4-2-2-2-6-6-6-------|
E---------------------------------------------|

E---------------|
B---------------|
G---------------|
D---------------|
A-6-6-6-6-6-6-2-|P
E---------------|
Related for Rockabunny - North To South tab