Song name
# A B C D E F G H I J K L M N O P Q R S T U V W X Y Z

Misc Unsigned Bands - The February Effect - Teaser tab

-------------------------------------------------------------------------------
			     SONG NAME - The February Effect
-------------------------------------------------------------------------------
Tabbed by:fretsareonfire
Email: WEESONandFRIENDS@AIM.COM

Tuning:

e|-----2--2--3p2--2--0h2--2--2h2--2----------repeatx2-(only-on-first-verse)--|
B|-----3--3--3-3--3--3-3--3--3-3--3------------------------------------------|
G|-----2--2--2-2--2--2-2--2--0-2--2------------------------------------------|
D|-----0--0--0-0--0--0-0--0--0-0--0------------------------------------------|
A|---------------------------------------------------------------------------|
E|---------------------------------------------------------------------------|

e|---------------------------------------------------------------------------|
B|-----1--1--3p1--1--0h1--1--1h1--1------------------------------------------|
G|-----0--0--0-0--0--0-0--0--0-0--0------------------------------------------|
D|-----2--2--2-2--2--2-2--2--2-2--2------------------------------------------|
A|-----3--3--3-3--3--3-3--3--0-3--3------------------------------------------|
E|---------------------------------------------------------------------------|

e|---------------------------------------------------------------------------|
B|---------------------------------------------------------------------------|
G|-----1---1---11--1---1---10-----00-0~--------------------------------------|
D|-----2---2---22--2---2---22-----22-2~--------------------------------------|
A|-----2---2---22--2---2---22-----22-2~--------------------------------------|
E|-----0---0---00--0---0---00-----00-0~--------------------------------------|

Then just repeat this pattern 3 times through. This is just a teaser (promotional) song.

| /  slide up
| \  slide down
| h  hammer-on
| p  pull-off
| ~  vibrato
| +  harmonic
| x  Mute note
===============================================================================
Tap to rate this tab
# A B C D E F G H I J K L M N O P Q R S T U V W X Y Z