Song name
# A B C D E F G H I J K L M N O P Q R S T U V W X Y Z

Misc Unsigned Bands - Ephemeral Life - Violator tab

Help us improve GuitareTab! Take a short survey!
Verse
e|-----------------------------------------------------------------------------|
B|-----------------------------------------------------------------------------|
G|-----------------------------------------------------------------------------|
D|-----------------------------------------------------------------------------|
A|-7-----------7/8--8------------7-------8--7---8--------10--8-----------------|
E|---000000000--------00000000----5-555--5--5----7-777----7--7-----------------|

Chorus
e|-----------------------------------------------------------------------------|
B|-----------------------------------------------------------------------------|
G|-----------------------9----10----------------------10-----9-----------------|
D|-----------------------------------------------------------------------------|
A|-----------------------7-----8-----------------------8-----7-----------------|
E|-000-000-000-000-000----000---000-000-000-000-000---000----------------------|

e|-----------------------------------------------------------------------------|
B|-----------------------------------------------------------------------------|
G|-----------------------------------------------------------------------------|
D|-----------------------------------------------------------------------------|
A|-----------10--8---------------8--7------------------------------------------|
E|-88888888----------77777777--------------------------------------------------|


Bridge.

e|-----------------------------------------------------------------------------|
B|-----------------------------------------------------------------------------|
G|-----------------------------------------------------------------------------|
D|-----------------------------------------------------------------------------|
A|-----------------------------------------------------------------------------|
E|-00000000-3-2-00000000--3-2-5-3----------------------------------------------|


Break down.

e|-----------------------------------------------------------------------------|
B|-----------------------------------------------------------------------------|
G|-----------------------------------------------------------------------------|
D|-----------------------------------------------------------------------------|
A|-----------------------------------------------------------------------------|
E|-000-00-----000-00-----000-00-----000-888-777-777----------------------------|

e|-----------------------------------------------------------------------------|
B|-----------------------------------------------------------------------------|
G|-----------------------------------------------------------------------------|
D|-----------------------------------------------------------------------------|
A|-----------------------------------------------------------------------------|
E|------000-000-----000-000-----000-000----------------------------------------|

e|-----------------------------------------------------------------------------|
B|-----------------------------------------------------------------------------|
G|-----------------------------------------------------------------------------|
D|-----------------------------------------------------------------------------|
A|-----------------------------------------------------------------------------|
E|-000-00-000-00-000-00-000-00-000-00-000-00-000-888-777-777-------------------|


Outro.
e|--------5-------------5-------------5------------5-------------5--------------|
B|----------6-------------6-------------5------------5-----------6--------------|
G|-----7------7------7------7------5-----5------5-----5----------7--------------|
D|---7-------------7-------------5------------5------------------7--------------|
A|-5-------------5-------------5------------5--------------------5--------------|
E|------------------------------------------------------------------------------|
Related for Ephemeral Life - Violator tab