Song name
# A B C D E F G H I J K L M N O P Q R S T U V W X Y Z

Misc Unsigned Bands - Origami - For You tab

e|0-3033030-0-3033030-0-3033030-0-330000000000|
B|1-1-------1-1-------1-1-------1-1-3333333333|
G|0-0-------0-0-------2-0-------0-0-----------|
D|2---------0---------3---------0-------------| x2
A|3---------2---------0---------2-------------|
E|0---------3---------0---------3-------------|

e|000-33033030-000-33033030-000-33033030-000-330000000000|
B|111-1--------111-1--------111-1--------111-1-3333333333|
G|000-0--------000-0--------222-0--------000-0-----------|
D|222----------000----------333----------000-------------|
A|333----------222----------000----------222-------------|
E|000----------333----------000----------333-------------|


e|000033033030-000033033030-000033033030-0000330000000000-|0| Play First Part
B|111111111111-111111111111-111111111111-1111113333333333-|0| Two Times Then
G|000000000000-000000000000-222200000000-0000000000000000-|0| Slowly Pick The 
D|222222222222-000000000000-333333333333-0000000000000000-|2| Last Part Each 
A|333333333333-222222222222-000000000000-2222222222222222-|2| String A Time 
E|000000000000-333333333333-000000000000-3333333333333333-|0| On The 2 Play
Tap to rate this tab
# A B C D E F G H I J K L M N O P Q R S T U V W X Y Z