Song name
# A B C D E F G H I J K L M N O P Q R S T U V W X Y Z

Misc Unsigned Bands - The Bad Names - Cut The Curtains tab

[INTRO]
E|-------------------------------------------------------|
B|-------------------------------------------------------|
G|--------------7-7-7-x-x-x---------------9--------------|
D|-9-9-9-x-x-x--7-7-7-x-x-x--7-7-7-x-x-x--9p7h9p7h9p7--9-|
A|-9-9-9-x-x-x--5-5-5-x-x-x--7-7-7-x-x-x--7------------9-|
E|-7-7-7-x-x-x---------------5-5-5-x-x-x---------------7-|
                                                                
                                                          > x2     

E|-------------------------------------------------------|
B|-------------------------------------------------------|
G|--------------7-7-7-x-x-x---------------9--------------|
D|-9-9-9-x-x-x--7-7-7-x-x-x--7-7-7-x-x-x--9--------------|
A|-9-9-9-x-x-x--5-5-5-x-x-x--7-7-7-x-x-x--7--------------|
E|-7-7-7-x-x-x---------------5-5-5-x-x-x-------<-<-<-<-<-|
                                               (pick slide)1st time only


E|-------------------------------|
B|-------------------------------|
G|--------7-x-x---------9-9-9-9--| x6
D|-9-x-x--7-x-x--7-7-x--9-9-9-9--|
A|-9-x-x--5-x-x--7-7-x--7-7-7-7--|
E|-7-x-x---------5-5-x-----------|


E|----------------------------------------------|
B|-------------(x16)---------------(x16)--------|
G|---(x16)---7-----------(x16)---9--------------|  x2
D|-9---------7---------7---------9--------------|
A|-9---------5---------7---------7--------------|
E|-7-------------------5------------------------|


E|-------------------------------|
B|-------------------------------|
G|--------7-x-x---------9-9-9-9--| x6
D|-9-x-x--7-x-x--7-7-x--9-9-9-9--|
A|-9-x-x--5-x-x--7-7-x--7-7-7-7--|
E|-7-x-x---------5-5-x-----------|


E|----------------------------------------------|
B|-------------(x16)---------------(x16)--------|
G|---(x16)---7-----------(x16)---9--------------|  x2
D|-9---------7---------7---------9--------------|
A|-9---------5---------7---------7--------------|
E|-7-------------------5------------------------|


E|-------------------------------|
B|-------------------------------|
G|--------7-x-x---------9-9-9-9--| x6
D|-9-x-x--7-x-x--7-7-x--9-9-9-9--|
A|-9-x-x--5-x-x--7-7-x--7-7-7-7--|
E|-7-x-x---------5-5-x-----------|


E|----------------|
B|----------------|
G|-----7-------9--| x2 (there are some dandy riffs inbetween these chords
D|-9---7---7---9--|      but i dont know what they are)
A|-9---5---7---7--|
E|-7-------5------|


E|----------------|
B|----------------|
G|-----7-------9--| 
D|-9---7---7---9--| 
A|-9---5---7---7--|
E|-7-------5------|


E|----------------------------------------------|
B|-------------(x16)---------------(x16)--------|
G|---(x16)---7-----------(x16)---9--------------|  x3
D|-9---------7---------7---------9--------------|
A|-9---------5---------7---------7--------------|
E|-7-------------------5------------------------|
pm .         .         .         .     (palm mute first time only)


E|-------------------------------|
B|-------------------------------|
G|--------7-x-x---------9-9-9-9--| x4
D|-9-x-x--7-x-x--7-7-x--9-9-9-9--|
A|-9-x-x--5-x-x--7-7-x--7-7-7-7--|
E|-7-x-x---------5-5-x-----------|


the end.
Tap to rate this tab
# A B C D E F G H I J K L M N O P Q R S T U V W X Y Z