Song name
# A B C D E F G H I J K L M N O P Q R S T U V W X Y Z

Misc Unsigned Bands - Operation World War - High String Heritage tab

e---0-0-7-0-0-8-0-0-7-0-0-0-8-8-|
b-------------------------------|
g-------------------------------|
d-------------------------------|x2
a-------------------------------|
e-------------------------------|

e--0-0-9-8-7-8-7-7-7-----|
b----------------7-7-----|
g------------------------|
d------------------------|
a------------------------|
e------------------------|

e--0000-12-000--000-12-13-0000-12-000--000-12h13h14-12h13h14-|
b------------------------------------------------------------|
g------------------------------------------------------------|
d------------------------------------------------------------|x2
a------------------------------------------------------------|
e------------------------------------------------------------|

e-0-0-12-11-12-11---11-11-10---10-10-9-10-9-8-0--|
b------------------------------------------------|
g------------------------------------------------|
d------------------------------------------------|
a------------------------------------------------|
e------------------------------------------------|

e-121212-111111-131313-111111-101010-0---|
b----------------------------------------|
g----------------------------------------|
d----------------------------------------|
a----------------------------------------|
e----------------------------------------|

e---9h10-8h9-0-7h8-6h7-0-5h6-4h5-3h4-4h5-0--|
b-------------------------------------------|
g-------------------------------------------|
d-------------------------------------------|
a-------------------------------------------|
e-------------------------------------------|

e-----12-11-12-11-10-10---9-10-9-10-9-8-8-7-7-0-|
b-----------------------------------------------|
g-----------------------------------------------|
d-----------------------------------------------|
a-----------------------------------------------|
e-----------------------------------------------|

e--0000-12-000--000-12-13-0000-12-000--000-12h13h14-12h13h14-|
b------------------------------------------------------------|
g------------------------------------------------------------|
d------------------------------------------------------------|x2
a------------------------------------------------------------|
e------------------------------------------------------------|
e---0-0-7-0-0-8-0-0-7-0-0-0-8-8-|
b-------------------------------|
g-------------------------------|
d-------------------------------|x2
a-------------------------------|
e-------------------------------|

e--0-0-9-8-7-8-7-7-7-----|
b----------------7-7-----|
g------------------------|
d------------------------|
a------------------------|
e------------------------|
Tap to rate this tab
# A B C D E F G H I J K L M N O P Q R S T U V W X Y Z