Guitaretab - guitar tabs
Song name
# A B C D E F G H I J K L M N O P Q R S T U V W X Y Z

Misc Unsigned Bands - Monika Sex - Ptzaim Veneshikot tab

Intro:

             D
1)---------|-2-------||
2)-3-------|-3-------||
3)---0-2-0-|-2-------||
4)---------|-0-------||
5)---------|-----0---||
6)---------|---------||

Verse:

     D         D/C#      D/B       D/A       G
1)-|---------|---------|---------|---------|---------|
2)-|-----3---|-----3---|-----3---|-----3---|-----0---|
3)-|---2---2-|---2---2-|---2---2-|---2---2-|---0---0-|
4)-|-0-------|---------|---------|---------|---------|
5)-|---------|-4-------|-2-------|-0-------|---------|
6)-|---------|---------|---------|---------|-3-------|
[ Tab from: http://www.guitaretab.com/m/misc-unsigned-bands/89645.html ]
1)-|---------|-------0-|---------||
2)-|-----2---|-----3---|---3---3-||
3)-|---2---2-|---2-----|-----2---|| o
4)-|---------|-0-------|---------|| o
5)-|-0-------|---------|---------||
6)-|---------|---------|---------||

Bridge:

     D         D/C#      D/C       D/B       D/Bb
1)-|---------|---------|---------|---------|---------|
2)-|-----3---|-----3---|-----3---|-----3---|-----3---|
3)-|---2---2-|---2---2-|---2---2-|---2---2-|---2---2-|
4)-|-0-------|---------|---------|---------|---------|
5)-|---------|-4-------|-3-------|-2-------|-1-------|
6)-|---------|---------|---------|---------|---------|

1)-|---------|-------0-|---------||
2)-|-----2---|-----3---|---3---3-||
3)-|---2---2-|---2-----|-----2---|| o
4)-|---------|-0-------|---------|| o
5)-|-0-------|---------|---------||
6)-|---------|---------|---------||

Closure:

     D
1)-|-2-------||
2)-|-3-------||
3)-|-2-------||
4)-|-0-------||
5)-|---------||
6)-|---------||
Related for Monika Sex - Ptzaim Veneshikot tab
Advertisement will be closed in 10 seconds