Song name
# A B C D E F G H I J K L M N O P Q R S T U V W X Y Z

Misc Unsigned Bands - Minimum Wage - Things Dont Always Go To Plan tab

INTRO : GUITAR - PALM MUTED

e|--------------------------------------------------------------------G
B|--------------------------------------------------------------------U
G|-4-4-4-4-4-4-4-4------------------------------------4-4-4-4-4-4-4-4-I
D|-4-4-4-4-4-4-4-4--2-2-2-2-2-2-2-2--4-4-4-4-4-4-4-4--4-4-4-4-4-4-4-4-T
A|-2-2-2-2-2-2-2-2--2-2-2-2-2-2-2-2--4-4-4-4-4-4-4-4--2-2-2-2-2-2-2-2-A
E|------------------0-0-0-0-0-0-0-0--2-2-2-2-2-2-2-2------------------R

e|---------------------------G
B|---------------------------U
G|-4--4--4--4--4-4-4-4-4-4-4-I
D|-4--4--4--4--4-4-4-4-4-4-4-T
A|-2--2--2--2--2-2-2-2-2-2-2-A
E|---------------------------R

G|---------------------------B
D|---------------------------A
A|-------------2-2-2-2-2-2-2-S
E|---------------------------S

CHORUS

e|-----------------------------------------------------------G
B|-----------------------------------------------------------U
G|-4->-5-5--5-5-5----------------------------5-5-5-5-5-5-----I
D|-4->-5-5--5-5-5--3-3-3-3-3-3--5-5-5-5-5-5--5-5-5-5-5-5-----T
A|-2->-3-3--3-3-3--3-3-3-3-3-3--5-5-5-5-5-5--3-3-3-3-3-3-----A
E|-----------------1-1-1-1-1-1--3-3-3-3-3-3------------------R

G|-------------------------------------------------------------B
D|-------------------------------------------------------------A
A|-2->-3-3--3-3-3----------------------------3--3-3--3-3-3-----S
E|-----------------1-1-1-1-1-1--3-3-3-3-3-3--------------------S

CHORUS

e|-----------------------------G
B|-----------------------------U
G|-7-7-7-3--3--5-5-5-----------I
D|-7-7-7-3--3--5-5-5--7-7------T
A|-5-5-5-1--1--3-3-3--7-7------A
E|--------------------5-5------R

G|-----------------------------B
D|-----------------------------A
A|-5-----1--1--3---------------S
E|--------------------5-5------S
Tap to rate this tab
# A B C D E F G H I J K L M N O P Q R S T U V W X Y Z